» » »

Kim Deal Bass tabs (ver.1)

Artists:  A B C D E F G H I J K L M N O P Q R S T U V W X Y Z # 

Kim Deal Bass tabs (ver.1)

Dandy Warhols
Rating:
0/5 (0 votes)

Tabs too difficult? Try these video lessons and learn fast.
                This song is one of many of great Dandy tunes!
Not hard to play, enjoy!

Verse

G|----------------------------------------------|
D|----------------------------------------------|
A|--0-33-5-33-------------------------------|
D|----------------------------------------------|
     
Repeat over and over until Taylor2 sings

Pre-Chours

G|--------------------------------------------------|
D|-----0------0------------------------------------|
A|-0------0-------0--------------------------------|
D|---------------------------------------------------|
It's what I feel.......bah bah bah bah

Play the A on it's and play the D on feel
Whole notes basically

Chours
G|--------------------------------------------------|
D|-----0------0------------------------------------|
A|-0------0-------0--------------------------------|
D|----------------------1-3333-------------------|
Just want a girl as cool as kim deal

Play the F at cool, hold till kim deal and hit G
you can play around with the G if you want
then slip back into the verse

Verse

G|----------------------------------------------|
D|----------------------------------------------|
A|--0-33-5-33-------------------------------|
D|----------------------------------------------|
     
Excellent song even though Zia doesn't use the real thing.
Hope it comes easy and Dandy's Rule OK!
            
Tabs too difficult? Try these video lessons and learn fast.




comments powered by Disqus
↑ Back to top | Tablatures and chords are parodies/interpretations of the original songs. You may use it for private study, scholarship, research or language learning purposes only