» » »

Genius Tabs (ver.1)

Artists:  A B C D E F G H I J K L M N O P Q R S T U V W X Y Z # 

Genius Tabs (ver.1)

Dandy Warhols
Rating:
4/5 (3 votes)

Tabs too difficult? Try these video lessons and learn fast.
                Dandy Warhols
Tuning: Standard

|---0-----0------------------------|---0-----0------------------------|
|-0---0-0---0--s2---2---2---2b3r2--|-0---0-0---0--s2---2---2---2b3r2--|
|-----------------4---4---4--------|-----------------4---4---4--------| 
|----------------------------------|----------------------------------| 
|----------------------------------|----------------------------------|
|----------------------------------|----------------------------------|
repeat as needed

Bridge                A               
|---0-----0-----------------0-|
|-0---0-0---0-0-0-0-0-2--2--0-|
|---------------------2--2--1-|
|---------------------2--2--0-|
|---------------------0--0--0-|
|---------------------------0-|

Chorus

  E              A        A?
|-0--0--0--0--------------------0-|
|-0--0--0--0--2--2--2--0--0--0--0-| repeat as needed
|-1--1--1--1--2--2--2--2--2--2--1-|
|-2--2--2--2--2--2--2--2--2--2--0-|
|-2--2--2--2--0--0--0--0--0--0--0-|
|-0--0--0--0--------------------0-|


Solo
|-0--------------------------|-0--------------------------|
|---3-0--------------------3-|---3-0--------------------3-|
|-------2-0-------0----0h2---|-------2-0-------0----0h2---|
|-----------2-0-2------------|-----------2-0-2------------|
|----------------------------|----------------------------|
|----------------------------|----------------------------|

|-0-----0-----3s5-3-0--0---0-|-0-----0-----3s5-3-0--0---0-|
|---3-0---3-0------------3---|---3-0---3-0------------3---|
|----------------------------|----------------------------|
|----------------------------|----------------------------|
|----------------------------|----------------------------|
|----------------------------|----------------------------|

|-0--------------------------|-0--------------------------|
|---3-0--------------------3-|---3-0--------------------3-|
|-------2-0-------0----0h2---|-------2-0-------0----0h2---|
|-----------2-0-2------------|-----------2-0-2------------|
|----------------------------|----------------------------|
|----------------------------|----------------------------|

|-0-----0-----3s5-3-0--0---0-|-0-----0-----3s5-3-0--0---0-0(hold)|
|---3-0---3-0------------3---|---3-0---3-0------------3----------|
|----------------------------|-----------------------------------|
|----------------------------|-----------------------------------|
|----------------------------|-----------------------------------|
|----------------------------|-----------------------------------|

This is my first tab, very hard song i know, please rate it anyways
Thanks very much
            
Tabs too difficult? Try these video lessons and learn fast.




comments powered by Disqus
↑ Back to top | Tablatures and chords are parodies/interpretations of the original songs. You may use it for private study, scholarship, research or language learning purposes only