» » »

Dandy Warhols, Every Day Shoul Be A Holiday Tabs (ver.1)

Artists:  A B C D E F G H I J K L M N O P Q R S T U V W X Y Z # 

Every Day Shoul Be A Holiday Tabs (ver.1)

Dandy Warhols Tabs
 Rating:
4/5 (4 votes)
Every Day Shoul Be A Holiday lessons Tabs too difficult? Try these video lessons and learn fast
                CHORDS:
   -------
          EADGBE         EADGBE
   E     (022100)    D  (x5777x)
   B1    (x2444x)    A  (577655)
   G     (355433)    B2 (799877)
   
   
   The only real chords you can hear in this song is the E/Esus4 in the
   verses. But you can play the chorus with just ordinary chords and
   it sounds pretty good. So check it out and see if you like it.
   
   
   This riff is used whenever you play an E chord in the INTRO, VERSES
   and all the INTERLUDES. We'll call it RIFF 1:
        E       (sus4)
   E|-------------------------------------------------------------------|
   B|---9-9-9-9-10--9-9-9-9-9-9-10--9-9-9-9-9-9-10--9-9-9-9-10-10-10-10-|
   G|---9-9-9-9-9---9-9-9-9-9-9-9---9-9-9-9-9-9-9---9-9-9-9-9--9--9--9--|
   D|---9-9-9-9-9---9-9-9-9-9-9-9---9-9-9-9-9-9-9---9-9-9-9-9--9--9--9--|
   A|---7-7-7-7-7---7-7-7-7-7-7-7---7-7-7-7-7-7-7---7-7-7-7-7--7--7--7--|
   E|-------------------------------------------------------------------|
   
   
   
   INTRO:
   ------
   E
   [play RIFF 1 four times, then the tab below starts but the rhythm
    guitar keeps playing RIFF 1 while the lead guitar plays the tab.]
   
   TAB FOR INTRO:
     E
   E|-------------------------------------------
   B|-------------------------------------------     b = bend note
   G|--9-12b13-12-9----9-12b13-12b13-12-9----9--
   D|-------------------------------------12----
   A|-------------------------------------------
   E|-------------------------------------------
   
   E-------------------------------------------
   B--------------------------12b13-12----9----
   G--9-12b13-12-9----9-12b13----------12---9--
   D-------------------------------------------
   A-------------------------------------------
   E-------------------------------------------
   
   E-------------------------------------------
   B-------------------------------------------
   G--9-12b13-12-9----9-12b13-12b13-12-9----9--
   D-------------------------------------12----
   A-------------------------------------------
   E-------------------------------------------
   
   E-------------------------------------------|
   B-------------------------------------------|
   E--9----9---9----9-12b13-12b13-12b13-12-9---|
   D----12-------12----------------------------|
   A-------------------------------------------|
   E-------------------------------------------|
   
   
   VERSE 1: [play RIFF 1 over the whole verse]
   --------
   E    [This is the only chord in the verse]
   Summertime,
   I was getting paid
   Getting drunk, 
   And getting laid
   I grabbed the phone, 
   Called you up to say,
   Quit your job cause, 
   I got it made
   
   
   CHORUS:
   -------
      B1  G   E
   Anytiiiiiiiiiime,
             B1  G   E
   Baby lets goooooooooo,
         B1  G   D  A           B2
   Every daaaayyyyy should be a holiday
   
   
   INTERLUDE:
   ----------
   Repeat the INTRO tab while the rhythm
   guitar plays RIFF 1 or just an E chord.
   
   
   VERSE 2: [play like VERSE 1]
   --------
   Supercool,
   The Dandys rule OK
   Back in town,
   They got the raves
   Anytime, 
   Call me up if you've,
   Got the sun, 
   Then I've got the waves
   
   
   CHORUS: [play like first chorus]
   -------
   Anytime,
   Baby lets go,
   Every day should be a holiday
   
   
   INTERLUDE:
   ----------
       E (Rhythm guitar plays RIFF 1 throughout INTERLUDE)
   E|------------------------------------------
   B|------------------------------------------
   G|--9-12b13-12-9---9-12b13-12b13-12-9----9--
   D|------------------------------------12----
   A|------------------------------------------
   E|------------------------------------------
   
   E------------------------------------------
   B------------------------------------------
   G--9-12b13-12-9---9-12b13-12b13-12-9----9--
   D------------------------------------12----
   A------------------------------------------
   E------------------------------------------
   
   E------------------------------------------
   B------------------------------------------
   G--9-12b13-12-9---9-12b13-12b13-12-9----9--
   D------------------------------------12----
   A------------------------------------------
   E------------------------------------------
   
   D-------------------------------------|
   A-------------------------------------|
   E--9----9--9----9---9----9----9----9--|
   D----12------12-------12---12---12----|
   A-------------------------------------|
   E-------------------------------------|
   
   
   CHORUS: [play like first chorus]
   -------
   Anytime,
   Baby lets go,
   Every day should be a holiday
   
   
   INTERLUDE:
   ----------
      (E)
   E|------------------------------------|
   B|------------------------------------|
   G|--9------9-----9-----9-----9-12b13--|  --> Play this 8 times
   D|-----12----12----12----12-----------|
   A|------------------------------------|
   E|------------------------------------|
   
   
   CHORUS:
   -------
      B1  G   E
   Anytiiiiiiiiiime,
             B1  G   E
   Baby lets goooooooooo,
         B1  G   D  A           B2
   Every daaaayyyyy should be a holiday
      B1  G   E
   Anytiiiiiiiiiime,
             B1  G   E
   Baby lets goooooooooo,
         B1  G   D  A           B2
   Every daaaayyyyy should be a holiday
   
   
   OUTRO:
   ------
      (E) (RIFF 1)
   E|-------------------------------------------|
   B|-------------------------------------------|
   G|--9-12b13-12-9---9-12b13-12b13-12b13----9--| --> Play 3 times
   D|-------------------------------------12----|
   A|-------------------------------------------|
   E|-------------------------------------------|
            
Submit corrections

comments powered by Disqus
↑ Back to top | Dandy Warhols Tabs for Every Day Shoul Be A Holiday. Lyrics for acoustic guitar and electric guitar. Tablatures and chords are parodies/interpretations of the original songs. You may use it for private study, scholarship, research or language learning purposes only