» » »

Arpeggio Adaggio Tabs (ver.1)

Artists:  A B C D E F G H I J K L M N O P Q R S T U V W X Y Z # 

Arpeggio Adaggio Tabs (ver.1)

Dandy Warhols
Rating:
0/5 (0 votes)

Hard to play? Try these video lessons and learn fast.
                The Dandy Warhols, Black Album. I one day hope to know the lyrics to this song.

Chords

E--0--0---0-0--0-0-0-0------------------------------------------|
B--0--0---0-0--2-2-2-2------------------------------------------|
G--1--1---1-1--2-2-2-2------------------------------------------|
D--2--2---2-2--2-2-2-2------------------------------------------|
A--2--2---2-2--0-0-0-0------------------------------------------|
E--0--0---0-0--0-0-0-0------------------------------------------| Repeat alot

2nd guitar line intro
E--------------------------------------------------------------|
B--------------------------------------------------------------|
G--------------------------------------------------------------|
D-----------------------------7p6-----------7p6----------------|
A---------------5---------5h7---------5--5h7-------------------|
E--5h7-0----5h7---7p5p0h5---------5h7--------------------------|

Repeat through out rest of song
E-------------------------------|
B-------------------------------|
G-------------------------------|
D-------------7p6---------------|
A------5--5h7-------------------|
E--5h7--------------------------|
            
Hard to play? Try these video lessons and learn fast. | Correct




comments powered by Disqus
↑ Back to top | Tablatures and chords are parodies/interpretations of the original songs. You may use it for private study, scholarship, research or language learning purposes only