>
 >
Waiting For A Ride

Waiting For A Ride Guitar Tabs

Dandelion - Waiting For A Ride chords, tabs, tablatures, lyrics

Guitar lessons | Add/correct | Request | Top 50 tabs Artists:  A B C D E F G H I J K L M N O P Q R S T U V W X Y Z 0-9

Waiting For A Ride Guitar Tabs – Dandelion

CD, Sheet music, Poster

Do you like Waiting For A Ride? Share with your friends now
Tabs
Username: okregisterme

detune all strings one half step

(x)X(x) - 1st number indicates number of preceding staffs to repeat,
          2nd number indicates number of repeats
% - rest
/ - slide up
(x) - sound the note without picking, by sliding into it from below
x - muted string
~ - vibrato
f - full bend
p - pull-off
r - release bend

  intro

1-------------------------------------------------------
2-------------------------------------------------------
3---9----9----9----9--10--10----9----9----9----9--8--8--
4---9----9----9----9--10--10----9----9----9----9--8--8--
5---7----7----7----7--8---8-----7----7----7----7--6--6--
6-0----0----0----0------------0----0----0----0----------  1X1

1---------------------------------------------------------
2---------------------------------------------------------
3-9-9--9-9--9-9--9-9-9-10--10--9-9--9-9--9-9--9-9-9-8--8--
4-9-9--9-9--9-9--9-9-9-10--10--9-9--9-9--9-9--9-9-9-8--8--
5-7-7--7-7--7-7--7-7-7-8---8---7-7--7-7--7-7--7-7-7-6--6--
6---------------------------------------------------------

1---------------------------------------------------------
2---------------------------------------------------------
3-9-9--9-9--9-9--9-9-9-10--10--9-9--9-9--9-9--9-9-9-9-----
4-9-9--9-9--9-9--9-9-9-10--10--9-9--9-9--9-9--9-9-9-9--%--
5-7-7--7-7--7-7--7-7-7-8---8---7-7--7-7--7-7--7-7-7-7-----
6---------------------------------------------------------

  verse

1-------------------------------------------------------------------
2-------------------------------------------------------------------
3-7/(9)--9-9-9--7-7/(9)--9-9-9--7-7/(9)--9-9-9--9-12--9-9-9-9--9-9--
4-7/(9)--9-9-9--7-7/(9)--9-9-9--7-7/(9)--9-9-9--9-12--9-9-9-9--9-9--
5-5/(7)--7-7-7--5-5/(7)--7-7-7--5-5/(7)--7-7-7--7-10--7-7-7-7--7-7--
6-------------------------------------------------------------------  1X2

1------------------------------------------------------------------
2------------------------------------------------------------------
3-7/(9)--9-9-9--7-7/(9)--9-9-9--7-7/(9)--9-9-9--9-12--9--7--4-4-4--
4-7/(9)--9-9-9--7-7/(9)--9-9-9--7-7/(9)--9-9-9--9-12--9--7--4-4-4--
5-5/(7)--7-7-7--5-5/(7)--7-7-7--5-5/(7)--7-7-7--7-10--7--5--2-2-2--
6------------------------------------------------------------------

  chorus

1-----------------------------------------------------------
2-----------------------------------------------------------
3-2--2--2-2-2-x-5--5--5-5-5/(7)--7-7-7--7-7-7-7-7--7-7-7-7--
4-2--2--2-2-2-x-5--5--5-5-5/(7)--7-7-7--7-7-7-7-7--7-7-7-7--
5-0--0--0-0-0-x-3--3--3-3-3/(5)--5-5-5--5-5-5-5-5--5-5-5-5--
6-----------------------------------------------------------  1X1

  lead break

  ~      ~    ~     ~    ~    ~
1----------------------------------------------------------------------
2-5------5----5-----5----6----5---0-0-12---12h15p12-12---12h15p12-12---
3-7f-----7f---7f----7f---8f---7f--0-0-14f-----------14f-----------14f--
4----------------------------------------------------------------------
5----------------------------------------------------------------------
6----------------------------------------------------------------------

                                       ~
1-----------------------------------------
2-12h15p12-12---12h15p12----------15fr----
3----------14f-----------14frp12----------
4-------------------------------14----14--
5-----------------------------------------
6-----------------------------------------

  repeat verse and chorus (with 2 extra repeats),
  then intro with two extra repeats, and play this fill with 
  the last two repeats

  fill 1

1-12---12---12---12---13--13----12---12---12---12---11--11---
2-15f--15f--15f--15f--16f-16f---15f--15f--15f--15f--14f-14f--
3------------------------------------------------------------
4------------------------------------------------------------
5------------------------------------------------------------
6------------------------------------------------------------

  bridge

1-0--0--0-0--0-0-0-0--0-0-0--0--0-0--0-0-0-0--0-0-0--0--0-0--0-0-0-0--0-0----
2-3--3--3-3--3-3-3-3--3-3-6--6--6-6--6-6-6-6--6-6-8--8--8-8--8-8-8-8--8-8-7--
3-2--2--2-2--2-2-2-2--2-2-5--5--5-5--5-5-5-5--5-5-7--7--7-7--7-7-7-7--7-7-7--
4-4--4--4-4--4-4-4-4--4-4-7--7--7-7--7-7-7-7--7-7-9--9--9-9--9-9-9-9--9-9-7--
5-0--0--0-0--0-0-0-0--0-0-0--0--0-0--0-0-0-0--0-0-0--0--0-0--0-0-0-0--0-0-0--
6----------------------------------------------------------------------------

1-------------------
2--7--7-7--7-7-7-7--
3--7--7-7--7-7-7-7--
4--7--7-7--7-7-7-7--
5--0--0-0--0-0-0-0--
6-------------------  2X1

  solo 

1-0------0-0-0--0-0-0------0-0-0--0-0-0------0-0-0--0-0--0-0-0-----0-------
2-3/(5)--5-5-5--3-3-3/(5)--5-5-5--3-3-3/(5)--5-5-5--5-8--5-5-5-0-0-------12
3---------------------------------------------------------------------14f--
4--------------------------------------------------------------------------
5--------------------------------------------------------------------------
6--------------------------------------------------------------------------

                                           ~      ~   
1-----------------------12----12----12-----12-----12----
2-----12----12----12-------15f---15f---15f-15f----15f---
3--14f---14f---14f---14f--------------------------------
4-------------------------------------------------------
5-------------------------------------------------------
6-------------------------------------------------------

  repeat intro with fill 1

  3rd verse - same as first

  3rd chorus

                               ~
1---------------------------------
2-8f----8fr8-7--------------------
3--------------10-9-8-7f---7fr-5--
4---------------------------------
5---------------------------------
6---------------------------------

1-----------------------------------------------------------
2-----------------------------------------------------------
3-2--2--2-2-2-x-5--5--5-5-5/(7)--7-7-7--7-7-7-7-7--7-7-7-7--
4-2--2--2-2-2-x-5--5--5-5-5/(7)--7-7-7--7-7-7-7-7--7-7-7-7--
5-0--0--0-0-0-x-3--3--3-3-3/(5)--5-5-5--5-5-5-5-5--5-5-5-5--
6-----------------------------------------------------------

1-15f----15f----15fr-15-14---------------------------------------
2--------------------------18-17----17----17-----17--17--17------
3--------------------------------19f---19f---19--19f-19f-19f-----
4----------------------------------------------------------------
5----------------------------------------------------------------
6-------------------------------------------------------------\--

1-----------------------------------------------------------
2-----------------------------------------------------------
3-2--2--2-2-2-x-5--5--5-5-5/(7)--7-7-7--7-7-7-7-7--7-7-7-7--
4-2--2--2-2-2-x-5--5--5-5-5/(7)--7-7-7--7-7-7-7-7--7-7-7-7--
5-0--0--0-0-0-x-3--3--3-3-3/(5)--5-5-5--5-5-5-5-5--5-5-5-5--
6-----------------------------------------------------------

  repeat intro, with fill 1

  outro

1------------------------------------------------------------------------
2------------------------------------------------------------------------
3-7-7-7-7-7-----7-7-7-7-7-----7-7-7-7-7-----7-7-7-7-7---7-7--7-7-7-7-7---
4-7-7-7-7-7-----7-7-7-7-7-----7-7-7-7-7-----7-7-7-7-7---7-7--7-7-7-7-7---
5-5-5-5-5-5-----5-5-5-5-5-----5-5-5-5-5-----5-5-5-5-5---5-5--5-5-5-5-5---

1--------------------------------------------------------------------5---
2--------------------------------------------------------------------x---
3--7-7-7-7-7---7-7--7-7-7-7-7-----7-7-7-7-7-----7--7--7--------5-----7---
4--7-7-7-7-7---7-7--7-7-7-7-7-----7-7-7-7-7-----7--7--7--5-----5-----7---
5--5-5-5-5-5---5-5--5-5-5-5-5-----5-5-5-5-5-----5--5--5--5-----3---------
6--------------------------------------------------------3---------------





Comments


Popular Dandelion tabs & chords
Nothing To Say Tabs
Under My Skin Tabs
Viva Kneval Tabs


Song lyrics



↑ Back to top | Tablatures and chords are parodies/interpretations of the original songs. You may use it for private study, scholarship, research or language learning purposes only
© 2014 AZChords.com Contact us | Privacy policy | DMCA | Add/correct tabs | Request tabs | Top 50 tabs