>
 >
Viva Kneval

Viva Kneval Guitar Tabs

Dandelion - Viva Kneval chords, tabs, tablatures, lyrics

Guitar lessons | Add/correct | Request | Top 50 tabs Artists:  A B C D E F G H I J K L M N O P Q R S T U V W X Y Z 0-9

Viva Kneval Guitar Tabs – Dandelion

CD, Sheet music, Poster

Do you like Viva Kneval? Share with your friends now
Tabs
Username: okregisterme

detune all strings one whole step

x - muted note
f - full bend
r - release bend
p - pull-off
/ - slide up
g - gradual bend
t - three semi-tone or indeterminate bend

  intro 

2-13-13--x-13--x-13-- 
3-12-12--x-12--x-12--  
4-11-11--x-11--x-11-- 
5-12-12--x-12--x-12--  

  verse

3-6--7-7-7-9-9------------- 
4-6--7-7-7-9-9----5----7---  
5-4--5-5-5-7-7----5----7---  
6---------------0-3--0-5---  

  between verse part - play the part in () together with 
                       the third string at times

1--------------------------14---------------------------- 
2--------------------------13--(7frp5-5--5-7frp5-5)------ 
3-7frp5-5--5-7frp5-5--7/14-14---7frp5-5--5-7frp5-5--5----  
4-----------------------------------------------------8--  
  
  verse fill 

1--------------------------  
2-------------------------- 
3----------------6----7-9--  
4-2----5----7----6----7-9-- 
5-2----5----7----4----5-7--  
6-0--0-3--0-5--0----0------ 

  play this on either side of flute solo

1-------------0-------------------------------0----------------------  
2---------2-------------------------------2-------13-13--x-13--x-13-- 
3---------4gf-----------------------------4gf-----12-12--x-12--x-12--  
4-4--4--4---------4--4--4---------4--4--4---------11-11--x-11--x-11--  
5-4--4--4---------4--4--4---------4--4--4---------12-12--x-12--x-12--  
6-2--2--2---------2--2--2-3/15t---2--2--2----------------------------  

  outro

3-13----------11----------6----------4-- 
4-14----------12----------7----------5--  
5-14----------12----------7----------5--  
6-12----------10----------5----------3--





Comments


Popular Dandelion tabs & chords
Nothing To Say Tabs
Under My Skin Tabs
Waiting For A Ride Tabs


Song lyrics



↑ Back to top | Tablatures and chords are parodies/interpretations of the original songs. You may use it for private study, scholarship, research or language learning purposes only
© 2014 AZChords.com Contact us | Privacy policy | DMCA | Add/correct tabs | Request tabs | Top 50 tabs