» » »

Dandelion, Under My Skin Tabs (ver.1)

Artists:  A B C D E F G H I J K L M N O P Q R S T U V W X Y Z # 

Under My Skin Tabs (ver.1)

Dandelion Tabs
 Rating:
4/5 (4 votes)
Under My Skin lessons Tabs too difficult? Try these video lessons and learn fast
                Username: okregisterme

detune all strings one half step

\ - slide down
(x)X(x) - 1st number indicates number of preceding staffs to repeat,
          2nd number indicates number of repeats
h - hammer-on
/ - slide up
(x) - sound the note by sliding into it from below 
* - for this chord, use your thumb to fret the low note
    in order to free up the first finger to fret the minor third
    on the third string
    it may be a good idea to use your thumb throughout the part    
% - rest
. - sound, then immediately dampen
f - full bend
g - gradual bend
|-- - hold bend
t - three semi-tone bend
r - release bend
\ - slide down
| - repeat unison bend

  intro

  slide this shape down the neck slowly, strumming on the way down

1------
2------
3------
4-16\--
5-16\--
6-14\--

1-----------------------------------------------------
2-----------------------------------------------------
3-3---3---3-3-6--6--6--6-6-5--5--5--5-5-4--4--4--4-4--
4-4---4---4-4-7--7--7--7-7-6--6--6--6-6-5--5--5--5-5--
5-4---4---4-4-7--7--7--7-7-6--6--6--6-6-5--5--5--5-5--
6-2---2---2-2-5--5--5--5-5-4--4--4--4-4-3--3--3--3-3--  1X3

  verse 

1-----------------------------------------------------
2-----------------------------------------------------
3-----------------------------------------------------
4-----------------------------------------------------
5-----------------------------------------------------
6-----------------------------------------------------

1-0---------------------------------------------------
2-0---------------------------------------------------
3-3---------------------------------------------------
4-4---------------------------------------------------
5-4---------------------------------------------------
6-0h2-------------------------------------------------

1-----------------------------------------------------
2-----------------------------------------------------
3-----------------------------------------------------
4-----------------------------------------------------
5-----------------------------------------------------
6-----------------------------------------------------

1-0---------------------------------------------------
2-0---------------------------------------------------
3-3---------------------------------------------------
4-4---------------------------------------------------
5-4---------------------------------------------------
6-0h2-------------------------------------------------

  chorus        

  chorus riff a

                                                  *
1-----------------------------------------------------------------
2-----------------------------------------------------------------
3-3---3---3-3-3/(6)--6-6-6--6-6-6/(8)--8-8-8--8-8-7-7-7-7-7--7-7--
4-4---4---4-4-4/(7)--7-7-7--7-7-7/(9)--9-9-9--9-9-9-9-9-9-9--9-9--
5-4---4---4-4-4/(7)--7-7-7--5-7-7/(9)--9-9-9--9-9-9-9-9-9-9--9-9--
6-2---2---2-2-2/(5)--5-5-5--5-5-5/(7)--7-7-7--7-7-7-7-7-7-7--7-7--  1X1

  chorus riff b

1---------------------------------------------------------
2---------------------------------------------------------
3-9-\(8)--8--8/(9)---9---9-\(8)--8--8/(9)---9---9----9----
4-10\(9)--9--9/(10)--10--10\(9)--9--9/(10)--10--10---10\--
5-10\(9)--9--9/(10)--10--10\(9)--9--9/(10)--10--10-%-10\--
6-8-\(7)--7--7/(8)---8---8-\(7)--7--7/(8)---8---8----8-\--

 2nd verse 

1-----------------------------------------------------
2-----------------------------------------------------
3-3---3---3-3-6--6--6--6-6-5--5--5--5-5-4--4--4--4-4--
4-4---4---4-4-7--7--7--7-7-6--6--6--6-6-5--5--5--5-5--
5-4---4---4-4-7--7--7--7-7-6--6--6--6-6-5--5--5--5-5--
6-2---2---2-2-5--5--5--5-5-4--4--4--4-4-3--3--3--3-3--  1X1

                                              .
1---------------------------------------------3-------
2---------------------------------------------3-------
3-----------------------------------------------------
4-----------------------------------------------------
5-----------------------------------------------------
6-----------------------------------------------------

1-----------------------------------------------------
2-----------------------------------------------------
3-----------------------------------------------------
4-----------------------------------------------------
5-----------------------------------------------------
6-----------------------------------------------------

1---------------------------------------------3-------
2---------------------------------------------3-------
3-----------------------------------------------------
4-----------------------------------------------------
5-----------------------------------------------------
6-----------------------------------------------------

1-0---------------------------------------------------
2-0---------------------------------------------------
3-0h3-------------------------------------------------
4-0h4-------------------------------------------------
5-0h4-------------------------------------------------
6-0h2-------------------------------------------------

  2nd chorus - same as first, with 2 extra repeats on riff a

  solo - play clean or turn down volume
         let 1st and 2nd string ring out at random

1-0---0-0--0---0-0--0---0-------------------------------------------
2-3/5-5-5--3/5-5-5--3/5-5-------------------------------------------
3-------------------------4--4--4--3--3--3--4--4--4--4--3---3-3-4---
4-------------------------------------------------------------------
5-------------------------------------------------------------------
6-------------------------------------------------------------------


1-----------------------------------------------0--------0-----0--0--0-----
2-----------------------------0--------0--------3f-------3f----3f-3f-3f----
3-4---3--3--3--2--0--0--2--0--2f-0--0--2f-0--0-----0--0-----0-----------0--
4--------------------------------------------------------------------------
5--------------------------------------------------------------------------
6--------------------------------------------------------------------------

                                |--------------------------
1-----------------------0------------------0-----------------------
2--------------------------0--3gf-------------3t----------r/-------
3-3p2p0-----2p0-2gf------------------------------------------------
4-------2p0--------------------------------------------------------
5------------------------------------------------------------------
6-------------------------------------------------------------14\--  

  3rd verse

1------------------------------------------1----------
2---------------------------------------------1-------
3------------------------------------------------2----
4-----------------------------------------------------
5-----------------------------------------------------
6-----------------------------------------------------

1-----------------------------------------------------
2-----------------------------------------------------
3-----------------------------------------------------
4-----------------------------------------------------
5-----------------------------------------------------
6-----------------------------------------------------

1------------------------------------------1----------
2---------------------------------------------1-------
3------------------------------------------------2----
4-----------------------------------------------------
5-----------------------------------------------------
6-----------------------------------------------------

1-----------------------------------------------------
2-----------------------------------------------------
3---------------------------------------------9---9\--
4---------------------------------------------9-%-9\--
5-----------------------------------------------------
6-----------------------------------------------------

1-----------------------------------------------------
2-----------------------------------------------------
3-----------------------------------------------------
4-----------------------------------------------------
5-----------------------------------------------------
6-----------------------------------------------------

1-0-----0--0--0--0--0------0--0--0----0--0--0--
2-/(5)--5--5--3--3--3------2--2--2----1--1--1--
3----------------------------------------------
4----------------------------------------------
5----------------------------------------------
6----------------------------------------------

  3rd chorus - same as first but transposed down two frets, 
               with extra repeats, and these fills

1-12----------11------------9-----------------------------
2-15f---|--|--13f--|--|--|--12f--|--|--|--11f--|--|--|----
3---------------------------------------------------------
4---------------------------------------------------------
5---------------------------------------------------------
6---------------------------------------------------------  1X2

1----------------------------------------------------
2-------15f------------------------------------------
3-14f-----------14f---14f---14f--14f--14f--14f--14f--
4----------------------------------------------------
5----------------------------------------------------
6----------------------------------------------------

1-------------------------------------------------------------12----
2----------------------------------------------------------12-------
3-14frp12----%-14frp12----%-14frp12----%-14frp12----%--14f-------%--
4---------14-----------14-----------14-----------14-----------------
5-------------------------------------------------------------------
6-------------------------------------------------------------------
            
Submit corrections

comments powered by Disqus
↑ Back to top | Dandelion Tabs for Under My Skin. Lyrics for acoustic guitar and electric guitar. Tablatures and chords are parodies/interpretations of the original songs. You may use it for private study, scholarship, research or language learning purposes only