>
 >
Nothing To Say

Nothing To Say Guitar Tabs

Dandelion - Nothing To Say chords, tabs, tablatures, lyrics

Guitar lessons | Add/correct | Request | Top 50 tabs Artists:  A B C D E F G H I J K L M N O P Q R S T U V W X Y Z 0-9

Nothing To Say Guitar Tabs – Dandelion

CD, Sheet music, Poster

Do you like Nothing To Say? Share with your friends now
Tabs
Username: okregisterme

detune all strings by one half step

(x)X(x) - 1st number indicates number of preceding staffs to repeat,
          2nd number indicates number of repeats;
          when placed at the end of two staffs tied together,
          repeat both staffs
/ - slide up
(x) - sound note by sliding into it from below
f - full bend
~ - vibrato
r - release bend
p - pull-off
|-- - hold bend
xr - listen to the recording for the rhythm and number of repeats
\ - slide down
% - rest

  intro

1-----------------------------------------------------------------
2-----------------------------------------------------------------
3-11----------11----------11----------9---9---9---9---9---9---9---
4-12--12--12--12--12--12--12--12--12--10--10--10--10--10--10--10--
5-12--12--12--12--12--12--12--12--12--10--10--10--10--10--10--10--
6-10--10--10--10--10--10--10--10--10--8---8---8---8---8---8---8---  1X2

1-----------------------------------------------------------
2-----------------------------------------------------------
3-11----------11----------11----------14-14-14-14-14-14-14--
4-12--12--12--12--12--12--12--12--12--15-15-15-15-15-15-15--
5-12--12--12--12--12--12--12--12--12--15-15-15-15-15-15-15--
6-10--10--10--10--10--10--10--10--10--13-13-13-13-13-13-13--

  verse

1----------------------------------------------
2----------------------------------------------
3-2--2--2--2/(4)--4--4---2--2--2--2/(4)--4--4--
4-3--3--3--3/(5)--5--5---3--3--3--3/(5)--5--5--
5-3--3--3--3/(5)--5--5---3--3--3--3/(5)--5--5--
6-1--1--1--1/(3)--3--3---1--1--1--1/(3)--3--3--  1X5

1----------------------------------------------------
2----------------------------------------------------
3-7--7--7--7/(9)---9---9----7--7--7--7/(9)---9---9---
4-8--8--8--8/(10)--10--10---8--8--8--8/(10)--10--10--
5-8--8--8--8/(10)--10--10---8--8--8--8/(10)--10--10--
6-6--6--6--6/(8)---8---8----6--6--6--6/(8)---8---8---  1X1

1----------------------------------------------
2----------------------------------------------
3-2--2--2--2/(4)--4--4---2--2--2--2/(4)--4--4--
4-3--3--3--3/(5)--5--5---3--3--3--3/(5)--5--5--
5-3--3--3--3/(5)--5--5---3--3--3--3/(5)--5--5--
6-1--1--1--1/(3)--4--4---1--1--1--1/(3)--3--3--

1----------------------------------------------------------
2----------------------------------------------------------
3-2--2--2--2/(4)--4--4---2--2--2--2/(4)--4--4--4--4--4--4--
4-3--3--3--3/(5)--5--5---3--3--3--3/(5)--5--5--5--5--5--5--
5-3--3--3--3/(5)--5--5---3--3--3--3/(5)--5--5--5--5--5--5--
6-1--1--1--1/(3)--3--3---1--1--1--1/(3)--3--3--3--3--3--3--

  chorus

1-----------------------------------------------------
2-----------------------------------------------------
3-9-----------9-----------9-----------14--14--14--14--
4-10--10--10--10--10--10--10--10--10--15--15--15--15--
5-10--10--10--10--10--10--10--10--10--15--15--15--15--
6-8---8---8---8---8---8---8---8---8---13--13--13--13--

  2nd verse - repeat first verse, and add:

1----------------------------------------------------------
2----------------------------------------------------------
3-2--2--2--2/(4)--4--4---2--2--2--2/(4)--4--4--4--4--4--4--
4-3--3--3--3/(5)--5--5---3--3--3--3/(5)--5--5--5--5--5--5--
5-3--3--3--3/(5)--5--5---3--3--3--3/(5)--5--5--5--5--5--5--
6-1--1--1--1/(3)--3--3---1--1--1--1/(3)--3--3--3--3--3--3--

1-----------------------------------------------------------------
2-----------------------------------------------------------------
3-9-----------9-----------9-----------14--14--14--14--14--14--14--
4-10--10--10--10--10--10--10--10--10--15--15--15--15--15--15--15--
5-10--10--10--10--10--10--10--10--10--15--15--15--15--15--15--15--
6-8---8---8---8---8---8---8---8---8---13--13--13--13--13--13--13--

1-----------------------------------------------------
2-----------------------------------------------------
3-----------------------------------------------------
4-12--12--12--12--12--12--12--12--12--12--12--12--12--
5-12--12--12--12--12--12--12--12--12--12--12--12--12--
6-10--10--10--10--10--10--10--10--10--10--10--10--10--
|
| guitar two
|
1-------3--------3--------3--------3--------3-----
2-3--3--3--3--3--3--3--3--3--3--3--3--3--3--3--3--
3-------------------------------------------------
4-------------------------------------------------
5-------------------------------------------------
6-------------------------------------------------

  solo

1--------3---------3------3---------3---------3------3--
2-----3---------3----------------3---------3------------
3-5f--------5f--------5f-----5f--------5f--------5f-----
4-------------------------------------------------------
5-------------------------------------------------------
6-------------------------------------------------------

                                       ~
1--------3---------3------3---------------
2-----3---------3----------------3--------
3-5f--------5f--------5f-----5f-----5--3--
4-----------------------------------------
5-----------------------------------------
6-----------------------------------------

      ~                                         
1----------------------------------------------------
2---18f---18frp15----18p15----18p15----18p15-15------
3-/---------------17-------17-------17----------17f--
4----------------------------------------------------
5----------------------------------------------------
6----------------------------------------------------

1------15---------------15-----------15-------15-----------15-----------15-----
2----------15-------15-----------15--------------------15-----------15---------
3-17f----------17f----------17f----------17f------17f----------17f----------17f
4------------------------------------------------------------------------------
5------------------------------------------------------------------------------
6------------------------------------------------------------------------------

1-----------------------------------------------------------------
2-----------------------------------------------------------------
3-11----------11----------11----------9---9---9---9---9---9---9---
4-12--12--12--12--12--12--12--12--12--10--10--10--10--10--10--10--
5-12--12--12--12--12--12--12--12--12--10--10--10--10--10--10--10--
6-10--10--10--10--10--10--10--10--10--8---8---8---8---8---8---8---
|
| guitar two
|
   |------   |------   |------
1-------------------------------------------------------------
2-3---3--3--5---5--5--6---6--6--8----8----8----8----8----8----
3-5f--5--5--7f--7--7--8f--8--8--10f--10f--10f--10f--10f--10f--
4-------------------------------------------------------------
5-------------------------------------------------------------
6-------------------------------------------------------------

1-----------------------------------------------------------------
2-----------------------------------------------------------------
3-11----------11----------11----------9---9---9---9---9---9---9---
4-12--12--12--12--12--12--12--12--12--10--10--10--10--10--10--10--
5-12--12--12--12--12--12--12--12--12--10--10--10--10--10--10--10--
6-10--10--10--10--10--10--10--10--10--8---8---8---8---8---8---8---
|
| guitar two
|
1-----------15-----------15--------------------------------------
2-------15-----------15------18------18---18---18---18-----------
3--17f----------17f----------17f-----17f--17f--17f--17f--17--15--
4----------------------------------------------------------------
5----------------------------------------------------------------
6----------------------------------------------------------------

1-----------------------------------------------------------------
2-----------------------------------------------------------------
3-11----------11----------11----------9---9---9---9---9---9---9---
4-12--12--12--12--12--12--12--12--12--10--10--10--10--10--10--10--
5-12--12--12--12--12--12--12--12--12--10--10--10--10--10--10--10--
6-10--10--10--10--10--10--10--10--10--8---8---8---8---8---8---8---
|
| guitar two
|
   |------   |------   |------
1-------------------------------------------------------------
2-3---3--3--5---5--5--6---6--6--8----8----8----8----8----8----
3-5f--5--5--7f--7--7--8f--8--8--10f--10f--10f--10f--10f--10f--
4-------------------------------------------------------------
5-------------------------------------------------------------
6-------------------------------------------------------------

1-----------------------------------------------------------------
2-----------------------------------------------------------------
3-11----------11----------11----------9---9---9---9---9---9---9---
4-12--12--12--12--12--12--12--12--12--10--10--10--10--10--10--10--
5-12--12--12--12--12--12--12--12--12--10--10--10--10--10--10--10--
6-10--10--10--10--10--10--10--10--10--8---8---8---8---8---8---8---
|
| guitar two
|
    |--------    |--------    |--------
1-15---15--15--15---15--15--15---15--15--14---14---14---14---
2-18f--18--18--18f--18--18--18f--18--18--16f--16f--16f--16f--
3------------------------------------------------------------
4------------------------------------------------------------
5------------------------------------------------------------
6------------------------------------------------------------

  3rd verse

1----------------------------------------------
2----------------------------------------------
3-2--2--2--2/(4)--4--4---2--2--2--2/(4)--4--4--
4-3--3--3--3/(5)--5--5---3--3--3--3/(5)--5--5--
5-3--3--3--3/(5)--5--5---3--3--3--3/(5)--5--5--
6-1--1--1--1/(3)--3--3---1--1--1--1/(3)--3--3--
|
| guitar two
|
1-------------------------------------------------------
2------------------------6---6---6---6---8----8----8----
3------------------------8f--8f--8f--8f--10f--10f--10f--
4-------------------------------------------------------
5-------------------------------------------------------
6-------------------------------------------------------

1----------------------------------------------
2----------------------------------------------
3-2--2--2--2/(4)--4--4---2--2--2--2/(4)--4--4--
4-3--3--3--3/(5)--5--5---3--3--3--3/(5)--5--5--
5-3--3--3--3/(5)--5--5---3--3--3--3/(5)--5--5--
6-1--1--1--1/(3)--3--3---1--1--1--1/(3)--3--3--
|
| guitar two
|
1--------------------------------------------------------
2-----------------------------18-------18---18-----------
3------------------------17f------17f--17f--17f--17--15--
4--------------------------------------------------------
5--------------------------------------------------------
6--------------------------------------------------------

1----------------------------------------------
2----------------------------------------------
3-2--2--2--2/(4)--4--4---2--2--2--2/(4)--4--4--
4-3--3--3--3/(5)--5--5---3--3--3--3/(5)--5--5--
5-3--3--3--3/(5)--5--5---3--3--3--3/(5)--5--5--
6-1--1--1--1/(3)--3--3---1--1--1--1/(3)--3--3--
|
| guitar two
|
1-------------------------------------------------------
2------------------------6---6---6---6---8----8----8----
3------------------------8f--8f--8f--8f--10f--10f--10f--
4-------------------------------------------------------
5-------------------------------------------------------
6-------------------------------------------------------

1----------------------------------------------
2----------------------------------------------
3-2--2--2--2/(4)--4--4---2--2--2--2/(4)--4--4--
4-3--3--3--3/(5)--5--5---3--3--3--3/(5)--5--5--
5-3--3--3--3/(5)--5--5---3--3--3--3/(5)--5--5--
6-1--1--1--1/(3)--3--3---1--1--1--1/(3)--3--3--
|
| guitar two
|
1----------------------------------------------15-----------15--
2------------------------------------------15-----------15------
3------------------------15f--15--15--17f----------17f----------
4---------------------------------------------------------------
5---------------------------------------------------------------
6---------------------------------------------------------------

1----------------------------------------------
2----------------------------------------------
3-2--2--2--2/(4)--4--4---2--2--2--2/(4)--4--4--
4-3--3--3--3/(5)--5--5---3--3--3--3/(5)--5--5--
5-3--3--3--3/(5)--5--5---3--3--3--3/(5)--5--5--
6-1--1--1--1/(3)--3--3---1--1--1--1/(3)--3--3--
|
| guitar two
|
1------15-----------15-----------15--
2---------------15-----------15------
3-17f------17f----------17f----------
4------------------------------------
5------------------------------------
6------------------------------------  1X2

1----------------------------------------------------------
2----------------------------------------------------------
3-2--2--2--2/(4)--4--4---2--2--2--2/(4)--4--4--4--4--4--4--
4-3--3--3--3/(5)--5--5---3--3--3--3/(5)--5--5--5--5--5--5--
5-3--3--3--3/(5)--5--5---3--3--3--3/(5)--5--5--5--5--5--5--
6-1--1--1--1/(3)--3--3---1--1--1--1/(3)--3--3--3--3--3--3--
|
| guitar two
|
1------15-------15------15------15---15---15---
2----------18f------18--18f-----18f--18f--18f--
3-17f------------------------------------------
4----------------------------------------------
5----------------------------------------------
6----------------------------------------------

1-----------------------------------------------------
2-----------------------------------------------------
3-9-----------9-----------9-----------14--14--14--14--
4-10--10--10--10--10--10--10--10--10--15--15--15--15--
5-10--10--10--10--10--10--10--10--10--15--15--15--15--
6-8---8---8---8---8---8---8---8---8---13--13--13--13--
|
| guitar two
|
    |--------    |--------    |-------
1-15---15--15--15---15--15--15---15-15--13------13---13---13---13---
2-18f--18--18--18f--18--18--18f--18-18--16f-----16f--16f--16f--16f--
3-------------------------------------------------------------------
4-------------------------------------------------------------------
5-------------------------------------------------------------------
6-------------------------------------------------------------------

1----------------------------------------------------------
2----------------------------------------------------------
3-2--2--2--2/(4)--4--4---2--2--2--2/(4)--4--4--4--4--4--4--
4-3--3--3--3/(5)--5--5---3--3--3--3/(5)--5--5--5--5--5--5--
5-3--3--3--3/(5)--5--5---3--3--3--3/(5)--5--5--5--5--5--5--
6-1--1--1--1/(3)--3--3---1--1--1--1/(3)--3--3--3--3--3--3--
|
| guitar two
|
       |----       |----
1-----------------------------------------------------
2----15---15-----15---15-----15------15---15----------
3-0--17f--17--0--17f--17--0--17f--0--17f------17--15--
4-----------------------------------------------------
5-----------------------------------------------------
6-----------------------------------------------------

  outro

1-----------------------------------------------------------------
2-----------------------------------------------------------------
3-9-----------9-----------9-----------14--14--14--14--14--14--14--
4-10--10--10--10--10--10--10--10--10--15--15--15--15--15--15--15--
5-10--10--10--10--10--10--10--10--10--15--15--15--15--15--15--15--
6-8---8---8---8---8---8---8---8---8---13--13--13--13--13--13--13--
|
| guitar two
|
    |--------    |--------    |--------   
1-------------------------------------------------------------------------
2-15---15--15--15---15--15--15---15--15--13---13---13---13---13-----------
3-17f--17--17--17f--17--17--17f--17--17--15f--15f--15f--15f--15f--15\--0--
4-------------------------------------------------------------------------
5-------------------------------------------------------------------------
6-------------------------------------------------------------------------

1-----------------------------------------------------------------
2-----------------------------------------------------------------
3-11----------11----------11----------9---9---9---9---9---9---9---
4-12--12--12--12--12--12--12--12--12--10--10--10--10--10--10--10--
5-12--12--12--12--12--12--12--12--12--10--10--10--10--10--10--10--
6-10--10--10--10--10--10--10--10--10--8---8---8---8---8---8---8---
|
| guitar two
|
1--------3-----------------------------------------
2-----3-----6f-----6f-----6f--6f-----6frp3---------
3-5f----------------------------------------5f--3--
4--------------------------------------------------
5--------------------------------------------------
6--------------------------------------------------

1-----------------------------------------------------------------
2-----------------------------------------------------------------
3-11----------11----------11----------9---9---9---9---9---9---9---
4-12--12--12--12--12--12--12--12--12--10--10--10--10--10--10--10--
5-12--12--12--12--12--12--12--12--12--10--10--10--10--10--10--10--
6-10--10--10--10--10--10--10--10--10--8---8---8---8---8---8---8---
|
| guitar two
|
  ~      ~      ~
1-------------------------------------------
2-3------3------3------3--------------------
3-5f-----5f-----5f-----5f-----5frp3p0-3--0--
4-------------------------------------------
5-------------------------------------------
6-------------------------------------------

1-----------------------------------------------------------------
2-----------------------------------------------------------------
3-11----------11----------11----------9---9---9---9---9---9---9---
4-12--12--12--12--12--12--12--12--12--10--10--10--10--10--10--10--
5-12--12--12--12--12--12--12--12--12--10--10--10--10--10--10--10--
6-10--10--10--10--10--10--10--10--10--8---8---8---8---8---8---8---
|
| guitar two
|
                                 ~
1--------3------3--3------3--3------
2-----3---------3--3------3--3--6f--
3-5f--------5f--------5f------------
4-----------------------------------
5-----------------------------------
6-----------------------------------

1-----------------------------------------------------------------
2-----------------------------------------------------------------
3-11----------11----------11----------9---9---9---9---9---9---9---
4-12--12--12--12--12--12--12--12--12--10--10--10--10--10--10--10--
5-12--12--12--12--12--12--12--12--12--10--10--10--10--10--10--10--
6-10--10--10--10--10--10--10--10--10--8---8---8---8---8---8---8---
|
| guitar two
|
                              ~                           ~
1------15-------15------15----------15---15---15---15---15---
2------15-------15------15--18f-----18f--18f--18f--18f--18f--
3-17f------17f------17f--------------------------------------
4------------------------------------------------------------
5------------------------------------------------------------
6------------------------------------------------------------

1--------------------------------------------------
2--------------------------------------------------
3-4------------------------------------------------
4-5------------------------------------------------
5-5------------------------------------------------
6-3-----xr-----------------------------------------
|
| guitar two
|
                             |------
1---------------------------------18---------------
2-18f---18--17--15-------------18------------------
3------------------17f--!--17f---------------------
4-------------------------------------------5\-----
5-------------------------------------------5\-----
6-------------------------------------------3\--%--





Comments


Popular Dandelion tabs & chords
Under My Skin Tabs
Viva Kneval Tabs
Waiting For A Ride Tabs


Song lyrics



↑ Back to top | Tablatures and chords are parodies/interpretations of the original songs. You may use it for private study, scholarship, research or language learning purposes only
© 2014 AZChords.com Contact us | Privacy policy | DMCA | Add/correct tabs | Request tabs | Top 50 tabs