» » »

Dance Hall Crashers, Whisky And Gin Bass tabs (ver.1)

Artists:  A B C D E F G H I J K L M N O P Q R S T U V W X Y Z # 

Whisky And Gin Bass tabs (ver.1)

Dance Hall Crashers Tabs
 Rating:
4/5 (4 votes)
Whisky And Gin lessons Tabs too difficult? Try these video lessons and learn fast
                WHISKY AND GIN by Dance Hall Crashers. Album : Honey I’m Homely (1997)
:
# intro # 
G-----------(x3)------------|-----------------------------|
D--------------------2222---|-----------------------222---|
A-------4-7777-----2--------|-------4-7777--------2-------|
E---555--------333----------|---555--------333-33---------|
:
# verse #  *=play x4  #=play x7
G--------(x8)--------|--------|--------(x4)--------|
D--------------------|----#---|--------------------|
A----*---*---*---*---|---0----|----*---*---*---*---|
E---5---0---3---0----|--------|---5---0---3---0----|
:
# chorus # x2  *=play x4  
G-------(x2)---------|-------------%---%---%---%---|--------------------|
D----*---*---*---*---|----*---*----%---%---%---%---|----*---*---*---*---|
A---5---0---1---1----|---5---0---1-%-1-%-1-%-1-%---|---5---0---1---1----|
E--------------------|-------------%---%---%---%---|--------------------|
:
# pre-verse # x2
G---------------------------|
D--------------------2222---|
A-------4-7777-----2--------|
E---555--------333----------|
:
Then Play verse, chorus ending on E-5-, and chorus @ 2:20
:
# fill # x4  *=play x4  
G--------------------|
D--------------------|
A----*---*---*---*---|
E---5---0---3---0----|
:
Then Play chorus
:
# outro #
G-------(x2)--------|------------%---%---%---%---|-------------------------|
D----*--------------|----*-------%---%---%---%---|----*--------------------|
A---7---*---*---*---|---7---*----%---%---%---%---|---7---*---*---*---------|
E------7---8---8----|------7---8-%-8-%-8-%-8-%---|------7---8---8---7-6-6--|
:
            
Submit corrections

comments powered by Disqus
↑ Back to top | Dance Hall Crashers Bass for Whisky And Gin. Lyrics for acoustic guitar and electric guitar. Tablatures and chords are parodies/interpretations of the original songs. You may use it for private study, scholarship, research or language learning purposes only