>
 >
The Truth About Me

The Truth About Me Bass Tabs

Dance Hall Crashers - The Truth About Me chords, tabs, tablatures, lyrics

Guitar lessons | Add/correct | Request | Top 50 tabs Artists:  A B C D E F G H I J K L M N O P Q R S T U V W X Y Z 0-9

The Truth About Me Bass Tabs – Dance Hall Crashers

CD, Sheet music, Poster

Do you like The Truth About Me? Share with your friends now
Bass Tabs
THE TRUTH ABOUT ME by Dance Hall Crashers. Album : Honey Im Homely (1997)
:
# chorus # (x2)
G-----------------------------------------------|
D-----------------------------------------------|
A--------77-------------55---7777--7777-----2---|
E---55--------33---55--------------------4------|
:
# pre-verse #
G-----------------------------|
D-----------------------------|
A-----------------------------|
E---55--3--55--3--55---3--3---|
:
# verse #
G-----------x2------------|----------------------|-------------------------|
D-------------------------|----------------------|-------------------------|
A-------------------------|--553--553--55--33--|-------------------------|
E---55--3--55--3-55--33---|----------------------|---55--3--55--3--55--33--|
:
# pre-chorus #
G-----------------------------------------|
D-----------------------------------------|
A---77--66--55--44------------------------|
E--------------------3-5--3-5--3-5--3-5---|
:
Then play verse, pre-chorus, chorus x4, verse, pre-chorus, chorus x4
:
# bridge #
G-------x9-------|---------------|
D------------3---|---------------|
A---5--5--3------|---33--3--3---|
E----------------|---------------|
:
Then play chorus x4, verse, pre-chorus, chorus x8, end on E---5--5---|
:





Comments


Popular Dance Hall Crashers tabs & chords
Go Bass Tabs
Go 1 Bass Tabs
Next To You Bass Tabs
No Heart Bass Tabs
Pick Up Lines 1 Bass Tabs
He Wants Me Back 1 Tabs
Keep On Running Tabs
Street Sweeper 1 Tabs
Cricket Ukulele
Sticky Ukulele


Song lyrics



↑ Back to top | Tablatures and chords are parodies/interpretations of the original songs. You may use it for private study, scholarship, research or language learning purposes only
© 2014 AZChords.com Contact us | Privacy policy | DMCA | Add/correct tabs | Request tabs | Top 50 tabs