» » »

The Truth About Me Bass tabs (ver.1)

Artists:  A B C D E F G H I J K L M N O P Q R S T U V W X Y Z # 

The Truth About Me Bass tabs (ver.1)

Dance Hall Crashers
Rating:
0/5 (0 votes)

Hard to play? Try these video lessons and learn fast.
                THE TRUTH ABOUT ME by Dance Hall Crashers. Album : Honey I’m Homely (1997)
:
# chorus # (x2)
G-----------------------------------------------|
D-----------------------------------------------|
A--------77-------------55---7777--7777-----2---|
E---55--------33---55--------------------4------|
:
# pre-verse #
G-----------------------------|
D-----------------------------|
A-----------------------------|
E---55--3--55--3--55---3--3---|
:
# verse #
G-----------x2------------|----------------------|-------------------------|
D-------------------------|----------------------|-------------------------|
A-------------------------|--55—3--55—3--55--33--|-------------------------|
E---55--3--55--3-55--33---|----------------------|---55--3--55--3--55--33--|
:
# pre-chorus #
G-----------------------------------------|
D-----------------------------------------|
A---77--66--55--44------------------------|
E--------------------3-5--3-5--3-5--3-5---|
:
Then play verse, pre-chorus, chorus x4, verse, pre-chorus, chorus x4
:
# bridge #
G-------x9-------|---------------|
D------------3---|---------------|
A---5--5--3------|---3—3--3--3---|
E----------------|---------------|
:
Then play chorus x4, verse, pre-chorus, chorus x8, end on E---5--5---|
:
            
Hard to play? Try these video lessons and learn fast. | Correct




comments powered by Disqus
↑ Back to top | Tablatures and chords are parodies/interpretations of the original songs. You may use it for private study, scholarship, research or language learning purposes only