» » »

Dance Hall Crashers, State Of Mind Bass tabs (ver.1)

Artists:  A B C D E F G H I J K L M N O P Q R S T U V W X Y Z # 

State Of Mind Bass tabs (ver.1)

Dance Hall Crashers Tabs
Rating:
0/5 (0 votes)
State Of Mind lessons Tabs too difficult? Try these video lessons and learn fast
                STATE OF MIND by Dance Hall Crashers Album : The Old Record
:
# intro # X2
G------------------------------------------------------------------------|
D-----3-7-3---3-7-3---------------------3-7-3---3-2-0--------------------|
A---5-------5---------4-7-4----4-5-7--5-------5---------4-7-4----4-5-7---|
E-------------------5--------5------------------------5--------5---------|
:
# verse # X2
G------------------------------------------------------------------------|
D-----3-7-3---3-7-3---------------------3-7-3---3------------------------|
A---5-------5---------4-7-4----4-7-4--5-------5---7-5---4-7-4----4-5-7---|
E-------------------5--------5------------------------5--------5---------|
:
# chorus #
G------------------------------------------------------------|
D------------------------------------------------------------|
A-------3--------5---7-77-7-7-7-5-3-2------3--------5--------|
E---1-1---1--3-33-3--------------------1-1---1--3-3---3--5---|
:
Then Play verse x2 & chorus
:
# bridge #  *=play x6
G-------------------------------------------------------->|
D-------*------------------------------------------------>|
A----*-1---*--3-3-3-----5-5----1-1-1-------3-3---3-3-3--->|
E---3-----1----------3-3---3-----------1-1-----1--------->|
:
G-----------------------------------------|
D-------*----------------*----------------|
A----*-1---*--3-3-3---*-1----3----3-4-4---|
E---3-----1----------3-----1---1----------|
:
Then Play verse x2 & chorus
:
# outro # 
G-------------------|
D-------------------|
A---0--2--3--4--5---|
E-------------------|
:
            

comments powered by Disqus
↑ Back to top | Dance Hall Crashers Bass for State Of Mind. Lyrics for acoustic guitar and electric guitar. Tablatures and chords are parodies/interpretations of the original songs. You may use it for private study, scholarship, research or language learning purposes only