» » »

Stand By Bass tabs (ver.1)

Artists:  A B C D E F G H I J K L M N O P Q R S T U V W X Y Z # 

Stand By Bass tabs (ver.1)

Dance Hall Crashers
Rating:
0/5 (0 votes)

Hard to play? Try these video lessons and learn fast.
                STAND BY by Dance Hall Crashers. Album : Honey I’m Homely (1997)
:
# intro #
G------------------|
D------------------|
A---------4--------|
E---4h5--5---4h5---|
:
# verse # x2
G----------------------------------------------------------------->|
D----------------------------------------------------------------->|
A-----4-----3-4-6-7-6------4-----3-4-2----------4-----3-4-6-7-6--->|
E---5---5-4--------------5---5-4-------5-4----5---5-4------------->|
:
G---------------------|
D---------------------|
A-----7---3-4-6-7-6---|
E---5---4-------------|
:
# chorus #  *=play x7
G------------------------------------------------|
D----*------*--------------*------*--------------|
A---7---*--5--------4-----7---*--5---------------|
E------7------55-45---5------7------5--4--2--4---|
:
Then Play verse & chorus
:
# bridge #  *=play x6
G------------------------------------------------------------------------>|
D------------------------------------------------------------------------>|
A---4--4------------4--4--------------4--4------------4--4--------------->|
E-------4--45--54--4----4--45-5-444-------4--45--54--4----4--4--55--44--->|
:
G--------(x4)--------|------------------------------|
D--------------------|----*------------*------------|
A---44---------------|---4---*--*--*--4---*--*--*---|
E-------44--55--44---|------4--5--4------4--5--7----|
:
# end-chorus #  *=play x7
G----------(x3)-----------|--------------------------|
D----*------*-------------|----*------*--------------|
A---7---*--5--------4-----|---7---*--5---------------|
E------7------55-45---5---|------7------5--4--2--4---|
:
# outro #
G--------------------------------------|
D--------------------------------------|
A-----4-----3-4-6-7-6------4-----3-4---|
E---5---5-4--------------5---5-4-------|
:
            
Hard to play? Try these video lessons and learn fast. | Correct




comments powered by Disqus
↑ Back to top | Tablatures and chords are parodies/interpretations of the original songs. You may use it for private study, scholarship, research or language learning purposes only