» » »

Dance Hall Crashers, She's Trying Bass tabs (ver.1)

Artists:  A B C D E F G H I J K L M N O P Q R S T U V W X Y Z # 

She's Trying Bass tabs (ver.1)

Dance Hall Crashers Tabs
Rating:
0/5 (0 votes)
Hard to play? Try these video lessons and learn fast.
                SHE’S TRYING by Dance Hall Crashers. Album BPS (1998)
: 
# verse A #    
G|------------------------------------------------------------|
D|------------------------------------------------------------|
A|---0-765-00-765---432----432--55-432-555-234--2-4-5-45-47---|
E|----------------2-----22------------------------------------|
:
# verse B #  X4
G|--------------------------------------------------|
D|---------------44-64--22-4------------------------|
A|---0747--0747--------------4--54-54—2-4-5-45-47---|
E|--------------------------------------------------|
:
# chorus #  X2
G|-------------------1111------------------------|
D|--------2222--4444------4444------2222---------|
A|---0000----------------------0000------55-44---|
E|-----------------------------------------------|
:
Then Play verse B x4, chorus x2, verse A
:
# bridge #
G|-----------------------------------------|
D|-----------------------------------------|
A|---0-----5--2--0-----5-----2-4-5-45-47---|
E|------2-----------2----------------------|
:
Then Play verse B x2 & chorus X2
:
# outro #
G|-------------------------------------------------------------|
D|-------------------------------------------------------------|
A|---0-765-00-765---432----432--55-432-555-234--2--4--5--4—0---|
E|----------------2-----22-------------------------------------|
:
            

comments powered by Disqus
↑ Back to top | Dance Hall Crashers Bass for She's Trying. Lyrics for acoustic guitar and electric guitar. Tablatures and chords are parodies/interpretations of the original songs. You may use it for private study, scholarship, research or language learning purposes only