» » »

Dance Hall Crashers, Setting Sun Bass tabs (ver.1)

Artists:  A B C D E F G H I J K L M N O P Q R S T U V W X Y Z # 

Setting Sun Bass tabs (ver.1)

Dance Hall Crashers Tabs
 Rating:
4/5 (4 votes)
Setting Sun lessons Tabs too difficult? Try these video lessons and learn fast
                SETTING SUN by Dance Hall Crashers. Album : Purr (1999)
:
# intro # 
G-------------------------------------------------------------|
D---00-------------------00-------------------00--------------|
A------00-33-20--2-5--------00-33-20---0-3-0-----00-33-20-----|
E---------------3----3---------------3--------------------3---|
:
# verse #
G-----------------------------------------------------------------------|
D---0-0-------------0-0-------------------0-0-------------0-0-----------|
A-------3-2-----2-------3-3-2--2-5----3-------3-2-----2-------3-2-0-----|
E-----------3-33-3------------3----3-3-3----------3-33-3------------3---|
# 
G-----------------------------------------------------------------------|
D--------------------------------------------00-------------------------|
A-----------------------------------------------00-33-20--2-5-----3-----|
E--------------------------------------------------------3----3--3-3----|
:
# verse2 #
G--------------------------------------------------------------------------|
D---0-0-------------0-0-------------------0-0-------------0-0--------------|
A-------3-2-----2-------3-3-2--2-5----3-------3-2-----2-------3-2----------|
E-----------3-33-3------------3----3-3-3----------3-33-3----------3333333--|
:
# chorus #
G---------------------------------------------------------------------->
D----2-5-2---4-7-4-----------2---22----2-5-2---4-7-4---------222-0----->
A--3-------5---------2-5-2--3--33----3-------5---------2-5-2-------3--->
E------------------3--------------------------------3------------------>
:
--------------------------------------------------------|
----2-5-2---4-7-4-----------2---22-----2-5-2----4-7-4---|
--3-------5---------2-5-2--3--33-----3--------5---------|
------------------3-------------------------------------|
Then play intro & verse2
:
# chorus2 #
G---------------------------------------------------------------------->
D----2-5-2---4-7-4-----------2---22----2-5-2---4-7-4---------222-0----->
A--3-------5---------2-5-2--3--33----3-------5---------2-5-2-------3--->
E------------------3--------------------------------3------------------>
:
----2-5-2---4-7-4-----------2---22----2-5-2---4-7-4--------------|
--3-------5---------2-5-2--3--33----3-------5--------------------|
------------------3----------------------------------3-333-3-2---|
:
# bridge #
G----------------------------------------------------------------------|
D---------------5-4-2-2---------5-4-2-2--------------------------------|
A-------0-0-5-5---------0-0-5-5---------0-0-5-5---------0-0-55555555---|
E---0-0-----------------------------------------3-2-0-0----------------|
#
G-------------------------------------------------------------------------|
D---00-------------------------00-------------------00--------------------|
A------00-33-20---2-5----3--------00-33-20----3--------00-33-20-----------|
E---------------3-----3-3-3----------------3-3-3----------------3-3-3-3---|
#
G---------------------------------------------------------------------->
D----2-5-2---4-7-4-----------2---22----2-5-2---4-7-4---------222-0----->
A--3-------5---------2-5-2--3--33----3-------5---------2-5-2-------3--->
E------------------3--------------------------------3------------------>
:
----2-5-2---4-7-4-----------2---22----2-5-2---4-7-4------------|
--3-------5---------2-5-2--3--33----3-------5------------------|
------------------3----------------------------------------3---|
:
            
Submit corrections

comments powered by Disqus
↑ Back to top | Dance Hall Crashers Bass for Setting Sun. Lyrics for acoustic guitar and electric guitar. Tablatures and chords are parodies/interpretations of the original songs. You may use it for private study, scholarship, research or language learning purposes only