» » »

Dance Hall Crashers, Othello Bass tabs (ver.1)

Artists:  A B C D E F G H I J K L M N O P Q R S T U V W X Y Z # 

Othello Bass tabs (ver.1)

Dance Hall Crashers Tabs
 Rating:
4/5 (4 votes)
Othello lessons Tabs too difficult? Try these video lessons and learn fast
1
                -------------------------------------------------------------------------------
-------------------------------------------------------------------------------

Tuning: Standard
Duration Legend:
W - whole
H - half
Q - quarter
E - 8th
S - 16th


Intro

     E  S S S S S E  S S S S S S S    E  S S S S S E  S S S S S S S  
G||--------------------------------|--------------------------------|
D||--------------------------------|--------------------------------|
A||---------------7--7-7-7-7-7-7-7-|---------------7--7-7-7-7-7-7-7-|
E||--7--7-7-7-7-7------------------|--7--7-7-7-7--------------------|


  E  S S S S S E  S S S S S S S    E  S S S S S E  S S S S S E     
--------------------------------|--------------------------------||
--------------------------------|--------------------7-6-7-6----*||
---------------7--7-7-7-7-7-7-7-|---------------7--7---------7--*||
--7--7-7-7-7--------------------|--7--7-7-7-7--------------------||

Main part (play x2)

  S E  S S S S S E  S S S S S S      S E  S S S S S E  S S S S S S 11x
----------------------------7---||-----------------------------7----||
-------------9--------4-4-7-----||*-------------9--------4-4-7-----*||
-------6-6-9-----5--5-----------||*-------6-6-9-----5--5-----------*||
----7---------------------------||---7-7----------------------------||


   E  S S S S S E  S S S S S S S       S E  S S S S S E  S S S S S S  8x
----------------------------------||-----------------------------7----||
*--------------------------------*||*-------------9--------4-4-7-----*||
*---------------7--7-7-7-7-7-7-7-*||*-------6-6-9-----5--5-----------*||
---7--7-7-7-7---------------------||---7-7----------------------------||


   E  S S S S S E  S S S S S S S  4x  E  E  Q    E  E  Q       E  E  Q    E  E  Q     
----------------------------------||------------------------|------------------------|
*--------------------------------*||------------------------|------------------------|
*---------------7--7-7-7-7-7-7-7-*||--9----------9----------|--7----------7----------|
---7--7-7-7-7---------------------||--------9----------9----|--------7----------7----|


  E  E  Q    E  E  Q       E  E  Q    E  E  Q         E  S S S S S E  S S S S S S S    
------------------------|------------------------||----------------------------------||
------------------------|------------------------||*--------------------------------*||
--9----------9----------|--7----------7----------||*---------------7--7-7-7-7-7-7-7-*||
--------9----------9----|--------7----------7----||---7--7-7-7-7---------------------||


Outro

   E  S S S S S E  S S S S S S S  6x  E  E  Q    E  E  Q       E  E  Q    E  E  Q     
----------------------------------||------------------------|------------------------|
*--------------------------------*||------------------------|------------------------|
*---------------7--7-7-7-7-7-7-7-*||--9----------9----------|--7----------7----------|
---7--7-7-7-7---------------------||--------9----------9----|--------7----------7----|


  E  E  Q    E  E  Q       E  E  Q    E  E  Q      
------------------------|------------------------||
------------------------|------------------------||
--9----------9----------|--7----------7----------||
--------9----------9----|--------7----------7----||
            
Submit corrections

comments powered by Disqus
↑ Back to top | Dance Hall Crashers Bass for Othello. Lyrics for acoustic guitar and electric guitar. 1 Tablatures and chords are parodies/interpretations of the original songs. You may use it for private study, scholarship, research or language learning purposes only