» » »

Dance Hall Crashers, Old And Grey Bass tabs (ver.1)

Artists:  A B C D E F G H I J K L M N O P Q R S T U V W X Y Z # 

Old And Grey Bass tabs (ver.1)

Dance Hall Crashers Tabs
 Rating:
4/5 (4 votes)
Old And Grey lessons Tabs too difficult? Try these video lessons and learn fast
                -------------------------------------------------------------------------------
-------------------------------------------------------------------------------

Tuning: Standard
Duration Legend:
W - whole
H - half
Q - quarter
E - 8th


Part 1
     Q    E  E  Q    E  E     E  E  E  E  Q    E  E   4x
G||------------------------|--------------------------||
D||------------------------|--------7----------------*||
A||-------6--9-------6--9--|-----7-----7-------4--7--*||
E||--7----------7----------|--------------5-----------||

Part 2

     Q    E  E  Q    Q       E  E  E  E  Q    E  E   4x   Q    E  E  Q    E  E   
||------------------------|--------------------------||-------------------------|
||*-------4--7--4---------|-------------------------*||*------------------2--5--|
||*--5---------------5----|--------2----------4-----*||*-------2--5--3----------|
||------------------------|-----3-----3--5-------5---||---3---------------------|


  E  E  E  E  Q    E  E     Q    E  E  Q    E  E     E  E  E  E  E  E  E  E     
-------------------------|------------------------|---------------------------||
--------4----------2--5--|------------------2--5--|--------4-----5--5--5--5--*||
-----5-----5--3----------|-------2--5--3----------|-----5-----5--------------*||
-------------------------|--3---------------------|---------------------------||

Part3

   E  E  E  E  E  E  E  E     E  E  E  E  E  E  E  E   4x
---------------------------|---------------------------||
*-----6--9--6--------------|-----------------4--7--4--*||
*--7--------------6--9--6--|-----4--7--4--5-----------*||
---------------7-----------|--5------------------------||

   Q    E  E  Q    E  E     E  E  E  E  Q    E  E   4x
-------------------------|--------------------------||
*------------------------|--------7----------------*||
*-------6--9-------6--9--|-----7-----7-------4--7--*||
---7----------7----------|--------------5-----------||


   Q    E  E  Q    Q       E  E  E  E  Q    E  E   4x  Q    E  E  Q    E  E   
------------------------|--------------------------||------------------------|
*-------4--7--4---------|-------------------------*||------------------2--5--|
*--5---------------5----|--------2----------4-----*||-------2--5--3----------|
------------------------|-----3-----3--5-------5---||--3---------------------|


  E  E  E  E  Q    E  E     Q    E  E  Q    E  E     E  E  E  E  E  E  E  E   
-------------------------|------------------------|--------------------------|
--------4----------2-----|------------------2--5--|--------4-----5--5--5--5--|
-----5-----5--3-------3--|-------2--5--3----------|-----5-----5--------------|
-------------------------|--3---------------------|--------------------------|


  Q    E  E  Q    E  E     E  E  E  E  Q    E  E     Q    E  E  Q    E  E   
------------------------|-------------------------|------------------------|
------------------2--5--|--------4----------2-----|------------------2--5--|
-------2--5--3----------|-----5-----5--3-------3--|-------2--5--3----------|
--3---------------------|-------------------------|--3---------------------|


  E  E  E  E  Q    E  E     Q    Q    H          
-------------------------|---------------------||
--------4----------2-----|---------------------||
-----5-----5--3-------3--|---------------------||
-------------------------|--3------------------||

Playing Order:
Part 1
Part 2 x2
Part 1
Part 2
Part 3
            
Submit corrections

comments powered by Disqus
↑ Back to top | Dance Hall Crashers Bass for Old And Grey. Lyrics for acoustic guitar and electric guitar. Tablatures and chords are parodies/interpretations of the original songs. You may use it for private study, scholarship, research or language learning purposes only