» » »

Dance Hall Crashers, No Heart Bass tabs (ver.1)

Artists:  A B C D E F G H I J K L M N O P Q R S T U V W X Y Z # 

No Heart Bass tabs (ver.1)

Dance Hall Crashers Tabs
 Rating:
4/5 (4 votes)
No Heart lessons Tabs too difficult? Try these video lessons and learn fast
                NO HEART by Dance Hall Crashers. Album : Purr (Import) (1999)
:
# intro # 
G----------------------------------------------------------|
D---------------------2------------------------------------|
A--------2-4-444-2-22---4-444-------2-4-444-2-222-4-4444---|
E---22-2-----------------------2-22------------------------|
:
# verse # X2
G------------------------------------------------------|
D--4-4444-2----------------4-4444-2---------2----------|
A-----------444-222-4-444-----------444-222---4-4444---|
E------------------------------------------------------|
:
# pre-chorus # X2
G---------------------------------------|
D—--1--11--1----------------------------|
A------------11--1--2--22--2--444-444---|
E---------------------------------------|
:
# chorus #
G----------------------------------------------->
D----------------------------------------------->
A------------2--4444444--2--222222--4--444444--->
E---2--2222------------------------------------->
:
-----------------------------------------------|
-----------------------------------------------|
--------------1--111111--2--222222--4-444444---|
---2--222222-----------------------------------|
:
Then play verse X2, pre-chorus X2, chorus X2
:
# outro # 
G---------------------------------------------------------------|
D---------------------2-----------------------------------------|
A--------2-4-444-2-22---4-444-------2-4-444-2-222-4444-4444-----|
E---22-2-----------------------2-22-------------------------2---|
:
            
Submit corrections

comments powered by Disqus
↑ Back to top | Dance Hall Crashers Bass for No Heart. Lyrics for acoustic guitar and electric guitar. Tablatures and chords are parodies/interpretations of the original songs. You may use it for private study, scholarship, research or language learning purposes only