» » »

Next To You Bass tabs (ver.1)

Artists:  A B C D E F G H I J K L M N O P Q R S T U V W X Y Z # 

Next To You Bass tabs (ver.1)

Dance Hall Crashers
Rating:
0/5 (0 votes)

Hard to play? Try these video lessons and learn fast.
                NEXT TO YOU by Dance Hall Crashers. Album : Honey I’m Homely (1997)
:
# intro #  *=play x8
G---------------------------------------|
D----*---*---*-------*---*---*----------|
A---5---3---2---*---5---3---2-----2-----|
E--------------3---------------33---3---|
:
# verse #  *=play x4 with pauses
G--------------------------------------------------------------------->|
D----*---*---*-------------*---*---*-------------*---*---*------------>|
A---5---3---2-------2-----5---3---2-------2-3---5---3---2-------2----->|
E--------------3-33---3--------------3-33------------------3-33---3--->|
:
G-----------------------|
D----*---*---*----------|
A---5---3---2-----2-----|
E--------------33---3---|
:
# chorus # 
G--------x3--------|---------------|
D—-----------------|---------------|
A---33------5555---|---33------0---|
E-------33---------|-------33------|
:
Then Play verse & chorus
:
# during-solo #  *=play x4 with pauses
G-----------------------------------------------|
D----*---*---*-------------*---*---*------------|
A---5---3---2-------2-----5---3---2-------2-3---|
E--------------3-33---3--------------3-33-------|
:
Then Play verse & chorus
:
# outro #
G--------x3--------|---------------------|
D—-----------------|---------------------|
A---33------5555---|---33------0-0-0-0---|
E-------33---------|-------33------------|
:
            
Hard to play? Try these video lessons and learn fast. | Correct




comments powered by Disqus
↑ Back to top | Tablatures and chords are parodies/interpretations of the original songs. You may use it for private study, scholarship, research or language learning purposes only