» » »

Dance Hall Crashers, Mr. Blue Bass tabs (ver.1)

Artists:  A B C D E F G H I J K L M N O P Q R S T U V W X Y Z # 

Mr. Blue Bass tabs (ver.1)

Dance Hall Crashers Tabs
 Rating:
4/5 (4 votes)
Mr. Blue lessons Tabs too difficult? Try these video lessons and learn fast
                MR BLUE by Dance Hall Crashers. Album : Honey Iā€™m Homely (1997)
:
# intro #  *=play x3
G------------------------------|
D----*------*--*--*------*-----|
A---5---*--2--0--5---*--2--0---|
E------3------------3----------|
:
# pre-verse #  *=play x3
G--------x3--------|-----------------|--------------------|
D----*------*--*---|----*------*-----|---------------55---|
A---5---*--2--0----|---5---*--2--0---|-------22--55-------|
E------3-----------|------3----------|---33---------------|
:
# verse #  *=play x3
G--------x3--------|-----------------|---------x2---------|
D----*------*--*---|----*------*-----|---------------55---|
A---5---*--2--0----|---5---*--2--0---|-------22--55-------|
E------3-----------|------3----------|---33---------------|
:
# chorus # x2 
G|-----------------------------------|
D|-----------------------------------|
A|---55-----33-----55-----33---------|
E|-------3------5------3------5555---|
:
Then Play verse & chorus
:
# bridge # x2
G|--------------------------------------------------------------|
D|--------------------------------------------------------------|
A|--555--2--320-40ā€”-555--2--320-20--555--2--320-40ā€”-555--2--3---|
E|------3-3-------------3-3-------------3-3-------------3-3-----|
:
Then Play Verse
:
# outro #
G|---------------x4------------------|---------------------------------|
D|-----------------------------------|---------------------------------|
A|---55-----33-----55-----33---------|---55------33------555-------3---|
E|-------3------5------3------5555---|-------33------55-------333------|
:
            
Submit corrections

comments powered by Disqus
↑ Back to top | Dance Hall Crashers Bass for Mr. Blue. Lyrics for acoustic guitar and electric guitar. Tablatures and chords are parodies/interpretations of the original songs. You may use it for private study, scholarship, research or language learning purposes only