>
 >
Mr. Blue

Mr. Blue Bass Tabs

Dance Hall Crashers - Mr. Blue chords, tabs, tablatures, lyrics

Guitar lessons | Add/correct | Request | Top 50 tabs Artists:  A B C D E F G H I J K L M N O P Q R S T U V W X Y Z 0-9

Mr. Blue Bass Tabs – Dance Hall Crashers

CD, Sheet music, Poster

Do you like Mr. Blue? Share with your friends now
Bass Tabs
MR BLUE by Dance Hall Crashers. Album : Honey Im Homely (1997)
:
# intro #  *=play x3
G------------------------------|
D----*------*--*--*------*-----|
A---5---*--2--0--5---*--2--0---|
E------3------------3----------|
:
# pre-verse #  *=play x3
G--------x3--------|-----------------|--------------------|
D----*------*--*---|----*------*-----|---------------55---|
A---5---*--2--0----|---5---*--2--0---|-------22--55-------|
E------3-----------|------3----------|---33---------------|
:
# verse #  *=play x3
G--------x3--------|-----------------|---------x2---------|
D----*------*--*---|----*------*-----|---------------55---|
A---5---*--2--0----|---5---*--2--0---|-------22--55-------|
E------3-----------|------3----------|---33---------------|
:
# chorus # x2 
G|-----------------------------------|
D|-----------------------------------|
A|---55-----33-----55-----33---------|
E|-------3------5------3------5555---|
:
Then Play verse & chorus
:
# bridge # x2
G|--------------------------------------------------------------|
D|--------------------------------------------------------------|
A|--555--2--320-40-555--2--320-20--555--2--320-40-555--2--3---|
E|------3-3-------------3-3-------------3-3-------------3-3-----|
:
Then Play Verse
:
# outro #
G|---------------x4------------------|---------------------------------|
D|-----------------------------------|---------------------------------|
A|---55-----33-----55-----33---------|---55------33------555-------3---|
E|-------3------5------3------5555---|-------33------55-------333------|
:





Comments


Popular Dance Hall Crashers tabs & chords
Blind Leading The Blind Bass Tabs
Go 1 Bass Tabs
Next To You Bass Tabs
She's Trying Bass Tabs
Better Than Anything 1 Tabs
Cricket 1 Tabs
My Problem Tabs
Othello 1 Tabs
Street Sweeper Tabs
Lost Again Ukulele


Song lyrics



↑ Back to top | Tablatures and chords are parodies/interpretations of the original songs. You may use it for private study, scholarship, research or language learning purposes only
© 2014 AZChords.com Contact us | Privacy policy | DMCA | Add/correct tabs | Request tabs | Top 50 tabs