» » »

Lost Again Bass tabs (ver.1)

Artists:  A B C D E F G H I J K L M N O P Q R S T U V W X Y Z # 

Lost Again Bass tabs (ver.1)

Dance Hall Crashers
Rating:
0/5 (0 votes)

Hard to play? Try these video lessons and learn fast.
                -------------------------------------------------------------------------------
-------------------------------------------------------------------------------

Tuning: Standard
Duration Legend:
W - whole
H - half
Q - quarter
E - 8th


Part 1

     Q    E  E  Q    Q       E  E  Q    Q    Q       E  E  E  E  Q    Q     
G||-----------------------|-----------------------|------------------------|
D||-------------6---------|--------6--------------|--------------4---------|
A||--7-------7-------7----|-----7-------7---------|--7--7-----7-------7----|
E||-----------------------|-----------------------|------------------------|


  E  E  Q    Q    Q         Q    Q    Q    Q       Q    Q    Q    E  E   
-----------------------||-----------------------|-----------------------|
--------4--------------||*----------------------|-----------------------|
-----7-------7----6----||*--7----6----4----7----|-------4----7----4--7--|
-----------------------||-----------------------|--5--------------------|


  Q    E  E  E  E  E  E     Q    Q    Q    Q       Q    Q    Q    Q     
-------------------------|----------------------|----------------------|
-------------6--6--6--6--|--4-------------------|----------------------|
--4-------4--------------|----------------------|-------4----5----4----|
-------------------------|-------6----7----9----|--5-------------------|


  Q    Q    Q    Q       Q    E  E  Q    E  E     Q    Q    Q    Q     3x
----------------------|------------------------|-----------------------||
----------------------|------------------------|----------------------*||
-------6----9----6----|--7-------7--4-------4--|--5----5----6----6----*||
--7-------------------|------------------------|-----------------------||


  Q    Q    Q    Q       Q    Q    Q    E  E     Q    E  E  E  E  E  E   
----------------------|-----------------------|-------------------------|
----------------------|-----------------------|-------------6--6--6--6--|
--7----6----4----7----|-------4----7----4--7--|--4-------4--------------|
----------------------|--5--------------------|-------------------------|


  Q    Q    Q    Q       E  E  E  E  E  E  E  E     E  E  E  E  E  E  E  E   
----------------------|--------------------------|--------------------------|
--4-------------------|--------------------------|--------------------------|
----------------------|--------------------------|--------------------------|
-------6----7----9----|--5--5--5--5--5--5--5--5--|--7--7--7--7--7--7--7--7--|


  E  E  E  E  E  E  E  E     E  E  E  E  E  E  E  E  
--------------------------|--------------------------|
--------------------------|--------------------------|
--7--7--7--7--7--7--7--7--|--7--7--7--7--7--7--7--7--|
--------------------------|--------------------------|

Part 2 (slow down a bit)
"I know where i wanna go.."

     Q    Q    Q    Q       Q    Q    Q    Q       Q    Q    Q    Q     
||-----------------------|----------------------|----------------------|
||*--7----7--------------|--7----7--------------|--9----9--------------|
||*------------7----7----|------------7----7----|------------9----9----|
||-----------------------|----------------------|----------------------|


  Q    Q    Q    Q       Q    Q    Q    Q       Q    Q    Q    Q     
----------------------|----------------------|----------------------|
--9----9--------------|----------------------|----------------------|
------------9----9----|--7----7----7----7----|--5----5----5----5----|
----------------------|----------------------|----------------------|


  Q    Q    Q    Q       Q    Q    Q    Q     
----------------------|-----------------------||
----------------------|----------------------*||
--4----4----4----4----|--4----4----4----4----*||
----------------------|-----------------------||

Back to normal tempo
Repeat from beginning then guitar solo:

     Q    Q    Q    Q       Q    Q    Q    E  E   
||-----------------------|-----------------------|
||*----------------------|-----------------------|
||*--7----6----4----7----|-------4----7----4--7--|
||-----------------------|--5--------------------|


  Q    E  E  E  E  E  E     Q    Q    Q    Q       Q    Q    Q    Q     
-------------------------|----------------------|----------------------|
-------------6--6--6--6--|--4-------------------|----------------------|
--4-------4--------------|----------------------|-------4----5----4----|
-------------------------|-------6----7----9----|--5-------------------|


  Q    Q    Q    Q       Q    E  E  Q    E  E     Q    Q    Q    Q       
----------------------|------------------------|-----------------------||
----------------------|------------------------|----------------------*||
-------6----9----6----|--7-------7--4-------4--|--5----5----6----6----*||
--7-------------------|------------------------|-----------------------||


Then repeat part 2:
(again, slow down a bit)

     Q    Q    Q    Q       Q    Q    Q    Q       Q    Q    Q    Q     
||-----------------------|----------------------|----------------------|
||*--7----7--------------|--7----7--------------|--9----9--------------|
||*------------7----7----|------------7----7----|------------9----9----|
||-----------------------|----------------------|----------------------|


  Q    Q    Q    Q       Q    Q    Q    Q       Q    Q    Q    Q     
----------------------|----------------------|----------------------|
--9----9--------------|----------------------|----------------------|
------------9----9----|--7----7----7----7----|--5----5----5----5----|
----------------------|----------------------|----------------------|


  Q    Q    Q    Q       Q    Q    Q    Q     
----------------------|-----------------------||
----------------------|----------------------*||
--4----4----4----4----|--4----4----4----4----*||
----------------------|-----------------------||


Outro
(slow down even more)

     Q    Q    Q    Q       Q    Q    Q    Q     4x  W                  
||-----------------------|-----------------------||-------------------||
||*----------------------|----------------------*||-------------------||
||*--7---------7---------|--7-------------------*||-------------------||
||--------5---------7----|-------5----4----2-----||--0----------------||
            
Hard to play? Try these video lessons and learn fast. | Correct




comments powered by Disqus
↑ Back to top | Tablatures and chords are parodies/interpretations of the original songs. You may use it for private study, scholarship, research or language learning purposes only