» » »

Dance Hall Crashers, Good For Nothing Bass tabs (ver.1)

Artists:  A B C D E F G H I J K L M N O P Q R S T U V W X Y Z # 

Good For Nothing Bass tabs (ver.1)

Dance Hall Crashers Tabs
Rating:
0/5 (0 votes)
Hard to play? Try these video lessons and learn fast.
                Dance Hall Crashers - "Good For Nothing"

Intro/Verse:
G:-----------------------------------------------------------|
D:*-----6h7p6--9-----------6-6-6--------6--------------------|
A:*--7------------9-----6---------9--------9--7-----4-----6--|
E:-------------------7---------------9-----------5-----7-----|

Chorus:
G:-----------------------------------------------------------|
D:*----------------------------------------------------------|
A:*------4-5-7-7-7-7---------------4-5-7-7-7-7---------------|
E:---5-5-------------7-7-7-7---5-5-------------7-5-4-2-------|
            

comments powered by Disqus
↑ Back to top | Dance Hall Crashers Bass for Good For Nothing. Lyrics for acoustic guitar and electric guitar. Tablatures and chords are parodies/interpretations of the original songs. You may use it for private study, scholarship, research or language learning purposes only