» » »

Good For Nothin Bass tabs (ver.1)

Artists:  A B C D E F G H I J K L M N O P Q R S T U V W X Y Z # 

Good For Nothin Bass tabs (ver.1)

Dance Hall Crashers
Rating:
0/5 (0 votes)

Hard to play? Try these video lessons and learn fast.
                -=-=-=-=-=- GOOD FOR NOTHIN' -=-=-=-=-=-
         by Dance Hall Crashers from the album "Lockjaw"

-=-=-=-=-=-=-=-=-=-=-=-=-=-=-=-=-=-=-=-=-=-=-=-=-=-=-=-=-=-=-=-=-=-=-=-=-=-=-=-
   Awesome song.  Nice, mellow reggae groove.  I got a chance to
   see DHC in concert and they played this song.  Great show and
   cool song to skank to.

   
   If you have any submissions for the archive, feel free to mail them to

   Enjoy!                                                                                   
-=-=-=-=-=-=-=-=-=-=-=-=-=-=-=-=-=-=-=-=-=-=-=-=-=-=-=-=-=-=-=-=-=-=-=-=-=-=-=-

  Intro/Verse

||-----------------------------------------------------------
||*-----6h7p6--9-----------6-6-6--------6--------------------
||*--7------------9-----6---------9--------9--7-----4-----6--
||-------------------7---------------9-----------5-----7-----                                                                                


  Chorus
                                                                                
||-----------------------------------------------------------
||*----------------------------------------------------------
||*------4-5-7-7-7-7---------------4-5-7-7-7-7---------------
||---5-5-------------7-7-7-7---5-5-------------7-5-4-2-------
            
Hard to play? Try these video lessons and learn fast. | Correct




comments powered by Disqus
↑ Back to top | Tablatures and chords are parodies/interpretations of the original songs. You may use it for private study, scholarship, research or language learning purposes only