» » »

Blind Leading The Blind Bass tabs (ver.1)

Artists:  A B C D E F G H I J K L M N O P Q R S T U V W X Y Z # 

Blind Leading The Blind Bass tabs (ver.1)

Dance Hall Crashers
Rating:
0/5 (0 votes)

Hard to play? Try these video lessons and learn fast.
                BLIND LEADING THE BLIND by Dance Hall Crashers Album : The Old Record
:
# verse # x3
G--------------------------------5-4-2----------------2-------------------|
D---------------4-----------------------------------4------2-5------------|
A-----2-5-2--55---5----2-5-2--33----------2-5-2--55-----33--------2-3-5---|
E---3----------------3------------------3-----------------------3---------|
:
# chorus # x2
G-------------------------------------------|
D-----4-7-4-------------------------4-5-7---|
A---5-----------2-5-2-----4-7-4---5---------|
E-------------3---------5-------------------|
:
Then Play verse x2, chorus, verse x2
:
# bridge #
G--------------------------------------------------|
D---5--5-4-----------------5--5-4------------------|
A----------5--5-3----5------------5--5-3----5------|
E-----------------5-----3----------------5-----3---|
:
Then Play verse x2 & chorus
:
# outro # 
G---------------------------|
D---5--5-4------------------|
A----------5--5-3----5------|
E-----------------5-----3---|
:
            
Hard to play? Try these video lessons and learn fast. | Correct




comments powered by Disqus
↑ Back to top | Tablatures and chords are parodies/interpretations of the original songs. You may use it for private study, scholarship, research or language learning purposes only