» » »

Dance Hall Crashers, All Mine Bass tabs (ver.1)

Artists:  A B C D E F G H I J K L M N O P Q R S T U V W X Y Z # 

All Mine Bass tabs (ver.1)

Dance Hall Crashers Tabs
 Rating:
4/5 (4 votes)
All Mine lessons Tabs too difficult? Try these video lessons and learn fast
                ALL MINE by Dance Hall Crashers. Album : Honey I’m Homely (1997)
:
# verse # x6
G-----------------------------------------------------|
D-----4-7-4----4-7------------------------------------|
A---5-------55-------4-7---4-7---2-5---2----2-5---2---|
E------------------5-----5-----3-----3---33-----3-----|
:
# chorus # x2
G--------------------------------------------------|
D--------------------------------------------------|
A---1-1--1-1---------------6-6-6-5--3-3-3--3-3-3---|
E------------3-3-3--3-3-3--------------------------|
:
Then Play verse x4, chorus x2, verse x2, chorus x2
:
# bridge # x2
G-----------------------------------|
D—----------------------------------|
A---55-------2-5---2-----2-5----2---|
E------55--3-----3----33------3-----|
:
Then play verse x2
:
# end-verse #
G-----------------------------|
D—----------------------------|
A-----2------2-----2------2---|
E---3---3--3----33---3--3-----|
:
Then Play chorus x2
:
# outro #  (repeat to fade)
G------------------------------------------------------------|
D—----6------6-----------------------------------------------|
A---7---7--7---7----6------6------4------4------6------6-----|
E-----------------7---7--7---7--5---5--5---5--7---7--7---7---|
:
            
Submit corrections

comments powered by Disqus
↑ Back to top | Dance Hall Crashers Bass for All Mine. Lyrics for acoustic guitar and electric guitar. Tablatures and chords are parodies/interpretations of the original songs. You may use it for private study, scholarship, research or language learning purposes only