>
 >
Tree Village

Tree Village Bass Tabs

Dance Gavin Dance - Tree Village chords, tabs, tablatures, lyrics

Guitar lessons | Add/correct | Request | Top 50 tabs Artists:  A B C D E F G H I J K L M N O P Q R S T U V W X Y Z 0-9

Tree Village Bass Tabs – Dance Gavin Dance

CD, Sheet music, Poster

Do you like Tree Village? Share with your friends now
Bass TabsChordsTabsUkulele
-----------------------------------------------------------------
Tree Village- Dance Gavin Dance
-----------------------------------------------------------------
Tuning:EADG

0:09-0:25
G|-------------------|
D|-------------------|
A|---7~---12~---5~---|
E|-------------------| x4

0:25-0:42
G|---------------------------------------------------------------|
D|---------------------------------------------------------------|
A|----77777---77777---1212121212---55555-------------------------|
E|---------------------------------------------------------------|

G|---------------------------------------------------------------|
D|---------------------------------------------------------------|
A|----77777---77777---00000---55555------------------------------|
E|---------------------------------------------------------------|x2

0:42-0:59
G|---------------------------------------------------------------|
D|---------------------------------------------------------------|
A|--7~---10~---12~-----5x5x-5x---3x-3x-3x-----------------------|
E|---------------------------------------------------------------|x4

0:59-1:16
G|-----------------|
D|-----------------|
A|--7~---5~---3~---|
E|-----------------|x4

1:16-1:38
G|---------------------------------------------------------------|
D|---------------------------------------------------------------|
A|--3-33-3-33333-----------------3-333-33333--5-55-5-555555-77x-|
E|-----------------0-00-0-000000---------------------------------|x2

G|----------|
D|----------|
A|----3~----|
E|----------|

1:38-1:48
G|-------------|
D|-------------|
A|----REST-----|
E|-------------|

1:48-2:09
G|---------------------------------------------------------------|
D|---------------------------------------------------------------|
A|---3-33x-3x-3x-3x-3x-33x---5-55x-5x-5x-5x-5x-55x ---77x--------|
E|---------------------------------------------------------------|

G|---------------------------------------------------------------|
D|---------------------------------------------------------------|
A|---3-33x-3x-3x-3x-3x-33x---5-55x-5x-5x-5x-5x-55/12-1212--------|
E|---------------------------------------------------------------|x3

2:09-2:30
G|-------------|
D|-------------|
A|---3~---7~---|
E|-------------|x4
2:30-2:52
G|---------------------------------------------------------------|
D|---------------------------------------------------------------|
A|--33333333333---77777777777------------------------------------|
E|---------------------------------------------------------------|x4
2:52-3:22
G|-------------|
D|-------------|
A|---7~---7~---|
E|-------------|

| /  slide up
| \  slide down
| h  hammer-on
| p  pull-off
| ~  vibrato
| +  harmonic
| x  Mute note





Comments


Popular Dance Gavin Dance tabs & chords
Don't Tell Dave 1 Bass Tabs
Happiness Bass Tabs
Nasa 2 Bass Tabs
Stawberry Swisher Bass Tabs
Elder Goose Intro Tabs
Its Safe To Say You Dig The Backseat Intro 1 Tabs
Nasa 1 Tabs
The Robot With Human Hair Part 2 Intro Tabs
The Robot With Human Hair Part 3 Intro Tabs
Uneasy Hearts Weigh The Most 1 Tabs


Song lyrics



↑ Back to top | Tablatures and chords are parodies/interpretations of the original songs. You may use it for private study, scholarship, research or language learning purposes only
© 2014 AZChords.com Contact us | Privacy policy | DMCA | Add/correct tabs | Request tabs | Top 50 tabs