» » »

The Robot With Human Hair Tabs (ver.4)

Artists:  A B C D E F G H I J K L M N O P Q R S T U V W X Y Z # 

The Robot With Human Hair Tabs (ver.4)

Dance Gavin Dance
Rating:
0/5 (0 votes)

Tabs too difficult? Try these video lessons and learn fast.
                "(Part3)
-------------------------------------------------------------------------------
           The Robot With Human Hair Pt.3 - Dance Gavin Dance
-------------------------------------------------------------------------------

Tuning: EADGBe Standard Tuning


I only put in one guitar part, and I mixed both guitars together to make it easier
and sound better when playing alone. I think it's pretty good, enjoy! Comments and
ratings are appreciated.


                   Play this 3 times

e|--7p0------------------7/10p0---------12p0--------------|
B|------0--7p0-0--7/10-0---------10p12--------------------|
G|--------------------------------------------------------|
D|--------------------------------------------------------|
A|--------------------------------------------------------|
E|--------------------------------------------------------|

                     Then the 4th time play

e|--7p0---------------------------------------------------|
B|------0--7p0-0--7/10-0--10\8-0--8\7p0-------------------|
G|--------------------------------------------------------|
D|--------------------------------------------------------|
A|--------------------------------------------------------|
E|--------------------------------------------------------|

        Repeat that for a bit then end with (put on delay)

e|---------------------------|
B|--------12\----------------|
G|---------x-----------------|
D|---------9\----------------|
A|---------------------------|
E|---------------------------|

                 Do this 4 times, the last time only play 16 once.

    PM.............................................
e|--14-14-14-----------------------------------------------------------------|
B|-----------15-15-15--------------------------------------------------------|
G|--------------------16-16-16-----------------------------------------------|
D|-----------------------------16-16-16-16-16-16-16--------------------------|
A|---------------------------------------------------------------------------|
E|---------------------------------------------------------------------------|

    PM.............................................
e|--14-14-14-----------------------------------------------------------------|
B|-----------15-15-15--------------------------------------------------------|
G|--------------------16-16-16-----------------------------------------------|
D|-----------------------------17-17-17-16-16-16-16--------------------------|
A|---------------------------------------------------------------------------|
E|---------------------------------------------------------------------------|


 He does some weird sliding thing on the third note. Not hard to figure out


e|---------------------------------12-------------------------------------|
B|------------12--15-----------12---------------12---15-12-15-12----------|
G|--------12/--------------12/--------------12/-----------------14--------|
D|--12-14------------12-14------------12-14-------------------------------|
A|------------------------------------------------------------------------|
E|------------------------------------------------------------------------|

e|---------------------------------12----------------14-15-14b-----------|
B|------------12--15-----------12---------------12-----------------------|
G|--------12/--------------12/--------------13/--------------------------|
D|--12-14------------12-14------------12-14------------------------------|
A|-----------------------------------------------------------------------|
E|-----------------------------------------------------------------------|


Favorite part right here (play twice but 2nd time without the harmonics and add octaves)

e|-----------------------------------------------------------------------------|
B|--12-12-12-x-x-x--10-10-10-x-x-x---------------------------------------------|
G|---x--x--x-x-x-x---x--x--x-x-x-x-7-------------------------------------------|
D|---9--9--9-x-x-x---7--7--7-x-x-x-x--9-7--7-7-7--7-7-7--7/9-------------------|
A|---------------------------------5--x-x--x-x-x--x-x-x--x-x-------------------|
E|------------------------------------7-5--5-5-5--5-5-5--5/7-------------------|


e|---------------------------------------------------------------------|
B|---------------------------------------------------------------------|
G|-4-x-x-4-x-x-4-4--7-x-x-7-x-x-7-7----------------------------+-------|
D|-x-x-x-x-x-x-x-x--x-x-x-x-x-x-x-x--2--2-2--2-2-2--2-2-2----+-5-------|
A|-3-x-x-3-x-x-3-3--5-x-x-5-x-x-5-5--x--x-x--x-x-x--x-x-x--+-5---------|
E|-----------------------------------0--0-0--0-0-0--0-0-0--5-----------|

                             Play 3 times

e|----------------------10h12p10------------------|
B|------------10p12h10----------------------------|
G|--11h12p11--------------------------------------|
D|------------------------------------------------|
A|------------------------------------------------|
E|------------------------------------------------|

                       Then the last time play this

e|------------10\------------------------|
B|---------------------------------------|
G|--11h12p11-----------------------------|
D|---------------------------------------|
A|---------------------------------------|
E|---------------------------------------|


        PM.........     PM.........     PM.........
e|---------------------------------------------------------------------------|
B|---------------------------------------------------------------------------|
G|---------------------------------------------------------------------------|
D|---------------------------------------------------------------------------|
A|--5h7-5-5-5-5-5-5-5h7-5-5-5-5-5-5-5h7-5-5-5-5-5-5-5h7----------------------|
E|---------------------------------------------------------------------------|

e|---------------------------------------------------------------------------|
B|---------------------------------------------------------------------------|
G|---------------------------------------------------------------------------|
D|----------------5\---------------------------------------------------------|
A|--5-7-5h7p5h7p5------------------------------------------------------------|
E|---------------------------------------------------------------------------|

        PM.........     PM.........     PM.........
e|---------------------------------------------------------------------------|
B|---------------------------------------------------------------------------|
G|---------------------------------------------------------------------------|
D|---------------------------------------------------------------------------|
A|--5h7-5-5-5-5-5-5-5h7-5-5-5-5-5-5-5h7-5-5-5-5-5-5-5h7----------------------|
E|---------------------------------------------------------------------------|

e|---------------------------------------------------------------------------|
B|---------------------------------------------------------------------------|
G|---------------------------------------------------------------------------|
D|----------------7\---------------------------------------------------------|
A|--5-7-5h7p5h7p5------------------------------------------------------------|
E|---------------------------------------------------------------------------|


Intro again...

                   Play this 3 times

e|--7p0------------------7/10p0---------12p0--------------|
B|------0--7p0-0--7/10-0---------10p12--------------------|
G|--------------------------------------------------------|
D|--------------------------------------------------------|
A|--------------------------------------------------------|
E|--------------------------------------------------------|

                     Then the 4th time play

e|--7p0---------------------------------------------------|
B|------0--7p0-0--7/10-0--10\8-0--8\7p0-------------------|
G|--------------------------------------------------------|
D|--------------------------------------------------------|
A|--------------------------------------------------------|
E|--------------------------------------------------------|

                      HxC F4sT PIcKING GOGOGO

e|--------------------------------------------------------------------------|
B|-20-x-x-20-x-x-20-x-x-20-x-x-20-x-x-20-x-x-20-x-x-20-x-x-20-x-x-20-xx-20--|
G|--------------------------------------------------------------------------|
D|--------------------------------------------------------------------------|
A|--------------------------------------------------------------------------|
E|--------------------------------------------------------------------------|

e|----------------------------------|
B|-x-x-20-x-x-20/22-22-22-22\-------|
G|----------------------------------|
D|----------------------------------|
A|----------------------------------|
E|----------------------------------|

e|--12-12--10-10--7-7---------7-7--------------------------------------------|
B|---------------------10-10------10-10--8-8--7-7----------------------------|
G|---------------------------------------------------------------------------|
D|---------------------------------------------------------------------------|
A|---------------------------------------------------------------------------|
E|---------------------------------------------------------------------------|

e|--12-12--10-10--7-7---------7-7--------12-12--10-12-15-12-12---------------|
B|---------------------10-10------10-10--------------------------------------|
G|---------------------------------------------------------------------------|
D|---------------------------------------------------------------------------|
A|---------------------------------------------------------------------------|
E|---------------------------------------------------------------------------|

e|--12-12--10-10--7-7---------7-7--------------------------------------------|
B|---------------------10-10------10-10--8-8--7-7----------------------------|
G|---------------------------------------------------------------------------|
D|---------------------------------------------------------------------------|
A|---------------------------------------------------------------------------|
E|---------------------------------------------------------------------------|

e|--12-12--10-10--12-12--10-10--10-12-12-14-14-15-15-17----------------------|
B|---------------------------------------------------------------------------|
G|---------------------------------------------------------------------------|
D|---------------------------------------------------------------------------|
A|---------------------------------------------------------------------------|
E|---------------------------------------------------------------------------|

Not sure how many times the high notes are played, I'm 100% sure they're there though

e|---------------------------12-12-14-14-15-15-15-15-15-15-15-15------------|
B|--------------------------------------------------------------------------|
G|--9-9--7-7--14-14--16-16--------------------------------------------------|
D|--x-x--x-x---x--x---x--x--------------------------------------------------|
A|--7-7--5-5--12-12--14-14--------------------------------------------------|
E|--------------------------------------------------------------------------|

                      Just play the last note a bunch.

e|----------------------------19--------------------------------------------|
B|--------------------------------------------------------------------------|
G|--11-11--7-7--14-14--16-16------------------------------------------------|
D|---x--x--x-x---x--x---x-x-------------------------------------------------|
A|---9--9--5-5--12-12--14-14------------------------------------------------|
E|--------------------------------------------------------------------------|

| /  slide up
| \  slide down
| h  hammer-on
| p  pull-off
| ~  vibrato
| +  harmonic
| x  Mute note
| PM Palm mute
===============================================================================
"            
Tabs too difficult? Try these video lessons and learn fast.


comments powered by Disqus
↑ Back to top | Tablatures and chords are parodies/interpretations of the original songs. You may use it for private study, scholarship, research or language learning purposes only