» » »

Strawberry Swisher Tabs (ver.2)

Artists:  A B C D E F G H I J K L M N O P Q R S T U V W X Y Z # 

Strawberry Swisher Tabs (ver.2)

Dance Gavin Dance
Rating:
0/5 (0 votes)

Hard to play? Try these video lessons and learn fast.
                "(Part2)
-------------------------------------------------------------------------
                Strawberry Swisher Pt. 2 by Dance Gavin Dance
-------------------------------------------------------------------------

Guitar 1 - Zac - Standard Tuning
Guitar 2 - Will - Standard Tuning

I know this is nowhere near complete or 100% accurate (or tabbed coherently
for that matter), but its a start. I will try and get the rest figured out
as soon as I can.

Verse 1
Play 4 Times

Guitar 1

e|----------------------------------------------------|
B|---9----9-x--9--9-x---9---9--9--9--9--9--9--9-xx----|
G|--10---10-x-10-10-x--10--10-10-10-10-10-10-10-xx----|
D|--11---11-x-11-11-x--10--10-10-10-10-10-10-10-xx----|
A|----------------------------------------------------|
E|----------------------------------------------------|

e|----------------------------------------------------|
B|--9---9--x-9--9--x--9---9--9--9--9--9--9--9--xx-----|
G|--10--10-x-10-10-x--10--10-10-10-10-10-10-10-xx-----|
D|--8---8--x-8--8--x--10--10-10-10-10-10-10-10-xx-----|
A|----------------------------------------------------|
E|----------------------------------------------------|

Guitar 2

e|---------9---------------------------------|
B|--6--6---x-9---6---6--6--6--6--6--6--6-----|
G|--6--6-----x---5---5--5--5--5--5--5--5-----|
D|--4--4-------------------------------------|
A|---------------4---4--4--4--4--4--4--4-----|
E|-------------------------------------------|

e|---------9--------------------------------|
B|--6--6---x-9---6---6--6--6--6--6--6--6----|
G|--3--3-----x---5---5--5--5--5--5--5--5----|
D|--3--3---------6---6--6--6--6--6--6--6----|
A|------------------------------------------|
E|------------------------------------------|


Pre-Chorus

Guitar 1
e|-----------------|-------------------------|
B|--9~-------------|---9~--------9~---6------|
G|---------10~-----|-------8~-----------8-6--|
D|-----------------|-------------------------|
A|-----------------|-------------------------|
E|-----------------|-------------------------|

Guitar 2
e|------------------|------------------------|
B|--9h11--9-----4---|--9h11---9------4-------|
G|--10----8h10--6---|--10-----8h10---6-------|
D|------------------|------------------------|
A|------------------|------------------------|
E|------------------|------------------------|

Chorus
Play 2 Times
Guitar 1 (light Palm-Mute)
e|------------------------------------|-------------------------------------|
B|-----9--9-----9---------------------|-----9--9-----9----------------------|
G|x-x--10-10-xx-10--101010-10-8-8-10--|x-x--10-10-xx-10--101010-10-8-8-10-10|
D|x-x-------------------------------8-|x-x----------------------------------|
A|------------------------------------|-------------------------------------|
E|------------------------------------|-------------------------------------|

e|-------------------------------------|-----------------------------|
B|------9---9----9---------------------|-9~--------------------------|
G|-x-x--10-10-xx-10--101010-10-8-8-10--|---------10~----8--10br------|
D|-x-x---------------------------------|-----------------------------|
A|-------------------------------------|-----------------------------|
E|-------------------------------------|-----------------------------|


Guitar 2
e|-(9)(9)--------------------8h9p8--|-(9)(9)-------------------8h9p8----------|
B|---------------9/-------9-------9-|--------------9/-------9----------9------|
G|-10-10--x-10--10/--8h10--10-------|-10-10--x-10--10/--8h10--10--------------|
D|--x--x--x--x----------------------|--x--x--x--x-----------------------------|
A|--9--9--x--8----------------------|--9--9--x--8-----------------------------|
E|---------------9/-----------------|---------------9/------------------------|


e|-(9)(9)----------------------13/16|---------------------------------------|
B|--------------9/--9h11h13-11h13---|-------------9---9h11p9--13-11-9-------|
G|-10-10-x-10--10/------------------|-10-x-10-x--10-------------------10----|
D|--x--x-x--x-----------------------|--x-x--x-x-----------------------------|
A|--9--9-x--8-----------------------|--8-x--8-x-----------------------------|
E|--------------9/------------------|---------------------------------------|


Verse 2
Guitar 2 - Play 3 Times
e|---------------------------8\--|----------------------------------|
B|--------6---------9---9--------|--------6---------9-----9---------|
G|------6--------6--------10-----|------6--------6----------10-8\---|
D|----8--------8-----------------|----8--------8--------------------|
A|--9--------9-------------------|--9--------9----------------------|
E|-------------------------------|----------------------------------|

e|----------------------------8\--|----------------------8\4--------|
B|--------6----------6---9--------|-------6---------6----x\x--------|
G|------5----------5-------10----|------5---------5------5\1--------|
D|----6----------6---------------|----6---------6-------------------|
A|--8----------8-----------------|--8---------8---------------------|
E|-------------------------------|----------------------------------|

Guitar 1 (Listen for when to come in)
e|----------|-------8~---|--16-16--13-----------------13---------------|
B|--9~------|-9~------9~-|-------------16---14-14--16----16-14---------|
G|------10~-|----8~------|---------------------------------------------|
D|----------|------------|---------------------------------------------|
A|----------|------------|---------------------------------------------|
E|----------|------------|---------------------------------------------|

Breakdown Part 1
Guitar 1
e|--16-16--13--------------13----|-16-16--13--------------13-13--------|
B|------------16--14-14-16----16-|-----------16--14-14-16-------16-14--|
G|-------------------------------|-------------------------------------|
D|-------------------------------|-------------------------------------|
A|-------------------------------|-------------------------------------|
E|-------------------------------|-------------------------------------|

Guitar 2 (really not sure about this part so I will just put some basic stuff to work with)
e|-------------------------------------|------------------------------------|
B|-----------------x---9\-6--4/6--6----|----------------14-14\11-11---9---9-|
G|10/11--10-x-6-x--x--10\-6--5/6--6----|-10/11--10-x-6-x-x--x--x--x---10--8-|
D|-x/x---11-x-8-x----------------------|--x/x-x-11-x-8-x-11-11\8--8---------|
A|-8/9-x-------------------------------|--8/9-x-----------------------------|
E|-------------------------------------|------------------------------------|


Guitar 1
e|--16-16--13--------------13----|-16-16--13--------------13/----------|
B|------------16--14-14-16----16-|-----------16--14-14-16--------------|
G|-------------------------------|-------------------------------------|
D|-------------------------------|-------------------------------------|
A|-------------------------------|-------------------------------------|
E|-------------------------------|-------------------------------------|

Guitar 2
e|--------------------------------------|-------------------------------------|
B|------------------9---9\--6--4/6--6---|-------------------------------18----|
G|10/11--10-x-6-x--10--10\--6--5/6--6---|10/11--10---6----18-18\15-15-x--x----|
D|-x/x-x-11-x-8-x-----------------------|-x/x---11-x-8-x---x--x--x--x--x-15---|
A|-8/9-x--------------------------------|-8/9-x------------16-16\13-13-x------|
E|--------------------------------------|-------------------------------------|

Breakdown Part 2 (Play all of part 1 a 2nd time, but tremelo pick all notes of Guitar 1s part)

Pre Chorus 2
Guitar 1
e|--16-----13----|
B|---------------|
G|---------------|
D|---------------|
A|---------------|
E|---------------|

Guitar 2
e|-------------------|
B|---9h11--9------4--|
G|--10-----8h10---6--|
D|-------------------|
A|-------------------|
E|-------------------|

Then Play Chorus Again

Outro
Guitar 2 (Play until end of song, Listen carefully because this part is 99.9% correct)
e|---------------------------------------------------|
B|--9--9--9-11-11--9--9------9--9--9--------9--9-11--|
G|-----------------------------------11-11-----------|
D|-11-11-11-11-11-11-11-----11-11-11-11-11-11-11-11--|
A|--9--9--9--9--9--9--9------9--9--9--9--9--9--9--9--|
E|---------------------------------------------------|

e|---------------------------------------------------|
B|--9--9--9-11-11--9--9------9--9--9--------9--9-11--|
G|-----------------------------------10-10-----------|
D|-10-10-10-10-10-10-10-----10-10-10-10-10-10-10-10--|
A|--8--8--8--8--8--8--8------8--8--8--8--8--8--8--8--|
E|---------------------------------------------------|

Guitar 1
Play Twice
e|------------------------------|------------------------------|
B|------------------------------|------------------------------|
G|--10--10--10--10--10-10br-10--|--10--10--10--x--10-10br-10---|
D|------------------------------|------------------------------|
A|------------------------------|------------------------------|
E|------------------------------|------------------------------|
Play Twice
e|---------------------------------|-------------------------------|
B|---------------------------------|-------------------------------|
G|--10-10-10-10-10-10/11\10-10-----|--10-10-10-10-10-10/11\10-10---|
D|--x--x--x--x--x--x--x--x--x------|--x--x--x--x--x--x--x--x--x----|
A|--8--8--8--8--8--8-/9\-8--8------|--8--8--8--8--8--8-/9\-8--8----|
E|---------------------------------|-------------------------------|

This part I am not sure about either but it sounds close, listen carefully for the
strumming pattern
Play Twice and add slides in when necessary
e|----------------------------------|--------------------------------------|
B|----------------------------------|--------------------------------------|
G|10/13-13-13-13-10-6-6-6-6-5-5-5-5-|10/13-13-13-13-15-15-13-13-10-10/13-13|
D|-x-x--x--x--x---x-x-x-x-x-x-x-x-x-|-x-x--x--x--x--x--x--x--x---x--x--x--x|
A|-8/11-11-11-11--8-4-4-4-4-3-3-3-3-|-8/11-11-11-11-13-13-11-11--8--8/11-11|
E|----------------------------------|--------------------------------------|

And thats it. Any suggestions or corrections are welcome


************************************

| /   slide up
| \   slide down
| h   hammer-on
| p   pull-off
| ~   vibrato
| +   harmonic
| x   Mute note
| b   Bend
| pb  Pre-bend
| br  Bend release
| pbr Pre-bend release
| brb Bend release bend

************************************
"            
Hard to play? Try these video lessons and learn fast. | Correct




comments powered by Disqus
↑ Back to top | Tablatures and chords are parodies/interpretations of the original songs. You may use it for private study, scholarship, research or language learning purposes only