» » »

Dance Gavin Dance, Skyhook Tabs (ver.1)

Artists:  A B C D E F G H I J K L M N O P Q R S T U V W X Y Z # 

Skyhook Tabs (ver.1)

Dance Gavin Dance Tabs
 Rating:
4/5 (4 votes)
Skyhook lessons Tabs too difficult? Try these video lessons and learn fast
1
                
First tab ever sooo
send me an email and tell me what you think...

Tuning:Standard

Intro
guitar 1  0:00-0:21
e|--------------------------------------------------------------------|
B|--------------------------------------------------------------------|
G|--14--16--14--16---19------19-------19------19----------------------|X2
D|---X---X---X---X----X--17---X--17----X--17---X--17\--19\--21/--19---|
A|--12--14--12--14---17---X--17---X---17---X--17---X\---X\---X/---X---|
E|-----------------------15------15-------15------15\--17\--19/--17---|
     ^   Strum   ^
0:21-0:43
e|--10~---10~---10~-----7~--7~--7~----------------------------------|
B|-----12~---12~---12~----8~--8~--8~---8~--8~--8~----7~--7~--7~-----|
G|---------------------------------------9~--9~--9~----9~--9~--9~---|X2
D|------------------------------------------------------------------|
A|------------------------------------------------------------------|
E|------------------------------------------------------------------|

Chorus
0:48-1:09
e|-----------------------------------------------------------|
B|-----------------------------------------------------------|
G|--16--14---------(X2)--14--12-----------14--12-------------|X4
D|---X---X--12--14--------X---X--12--14----X---X--12--10-----|(on 2nd time
A|--14--12---X---X-------12--10---X---X---12--10---X---X-----|playing add
E|----------10--12---------------10--12-----------10---8-----|harmonics
on the 5th frets on the 3rd and 2nd strings like this...)
e|-----------|
B|----5+-----|
G---5+--5+---|0:58-0:59
D|-----------|
A|-----------|
E|-----------|


1:09-1:14
e|-----------------|
B|--20~~~----------|
G|---------19~~~~--|
D|-----------------|
A|-----------------|
E|-----------------|
1:14-1:36
e|----------------------------------------------------------------------|
B|-------------------------------(X2)-----------------------------------|
G|-14-14-14-14h16-16-16-16-16-16------16h19-----16h19-------------------|
D|-----------------------------------------17-17-----17-17-17-17-17-17--|
A|----------------------------------------------------------------------|
E|----------------------------------------------------------------------|
(continued)
e|------------------------------------------|
B|------------------------------------------|
G|-16h19-----16h19-----------16-------------|
D|------17-17-----17-17-17-19--19-----------|
A|------------------------------------------|
E|------------------------------------------|

1:36-1:46
e|----------------------------------|
B|----------------------------------|
G|--12~~-------16--14--16-----------|
D|---X~~--------X---X---X-----------|
A|--10~~-------14--12--12-----------|
E|----------------------------------|
              ^Strum this^

Repeat Chourus
1:46-2:08

Outro
2:08-2:54
e|-------------------------|
B|-------------------------|
G|--9---11---16---14-------|
D|--X----X----X----X-------|
A|--7----9---14---12-------|
E|-------------------------|
   ^     STRUMM     ^


Intro
Guitar 2 0:00-0:21
e|-------------------|
B|-------------------|
G|--16--12--9--7-----|
D|---X---X--X--X-----|X2
A|--14--10--7--5-----|
E|-------0-----0-----|
     ^  Strum  ^

0:21-0:48
e|------------------------------------|
B|--10h12p0---------15p12p0-----------|
G|----------12h14p0-------------  X20-|
D|------------------------------------|
A|------------------------------------|
E|------------------------------------|
Chorus
0:48-0:59
e|-------------|
B|-------15/---|
G|--12-11------|X16  (You could use octaves to play this part as well.
D|-------------|      Personally i think it sounds better with octaves)
A|-------------|
E|-------------|
0:59-1:09
e|-----------------------------------------------------------------------|
B|-------------------------(X2)------------------------------------------|
G|--------------------19/------------------------------------------------|
D|---------------------X/------------------------17-16--19-17-16-16h17/--|
A|--------------------17/-----------------------------17-----------------|
E|--14-14-14-15-15-15----------14-14-14-15-15-15-------------------------|
(continued)
e|--------------------------------|
B|-------------------------X4-----|
G|--------------------19/---------|
D---------------------X/----------|
A|--------------------17/---------|
E|--14-14-14-15-15-15-------------|

1:09-1:36
e|----------------|
B|--12------------|
G|--12--12--------|X5   (First time hold notes then strum in a pattern..
D|--10--12--------|      listen to figure out the pattern)
A|--10--10--------|
E|------10--------|
1:36-1:41
e|----------14---------------14---------------14b---------|
B|--15-12-----15-12--15-12-----15-14--15-14-------15~-----|
G|-------14---------------14---------------14-------------|
D|--------------------------------------------------------|
A|--------------------------------------------------------|
E|--------------------------------------------------------|


Repeat the part before the chourus X4
1:41-1:46


Repeat Chorus
1:46-2:08

Outro
2:08-2:18
e|-------------------|
B|-------------------|
G|--16--12--9--7-----|
D|---X---X--X--X-----|
A|--14--10--7--5-----|
E|-------0-----0-----|
2:18-2:30
e|---------------10h12----(X5)----15-14----(X5)--17------(X5)-------|
B|--12-----(X5)-------12---------------12----------15---------------|
G|----12---------------------------------------------16-------------|
D|------14----------------------------------------------------------|
A|------------------------------------------------------------------|
E|------------------------------------------------------------------|

2:30-2:53
f**k around:)


Welll thats itt

Lemme know what ya think

Late..


| /  slide up
| \  slide down
| h  hammer-on
| p  pull-off
| ~  vibrato
| +  harmonic
| x  Mute note
  b  Bend
            
Submit corrections

comments powered by Disqus
↑ Back to top | Dance Gavin Dance Tabs for Skyhook. Lyrics for acoustic guitar and electric guitar. 1 Tablatures and chords are parodies/interpretations of the original songs. You may use it for private study, scholarship, research or language learning purposes only