» » »

Dance Gavin Dance, She Makes Dirty Words Sound Pretty Tabs (ver.1)

Artists:  A B C D E F G H I J K L M N O P Q R S T U V W X Y Z # 

She Makes Dirty Words Sound Pretty Tabs (ver.1)

Dance Gavin Dance Tabs
Rating:
0/5 (0 votes)
She Makes Dirty Words Sound Pretty lessons Tabs too difficult? Try these video lessons and learn fast
                this songs the best!!!..this tab is close to the song as i could get
read it carefully and also listen to the song carefully...i cudnt be botherd tabbing the 2nd guitar



tell me wat use think!

INTRO

|------------------------------------------------|
|------------------------------------------------|
|-------8-------------9----------11-----9--------|
|---9---9----strum----10—-strum—-10—----10—------|
|---7---7-------------7----------7------7--------|
|------------------------------------------------|

|-----------------------------------------------|
|-----------------------------------------------|
|-------8---9-----8---9----------11-----9-------|
|---9---9—--9-----9---10—-strum—-10-----10------|
|---7---7—--7-----7---7----------7------7-------|
|-----------------------------------------------|

CHORUS

|--------------------------------------|
|-----------------------12------10-----|
|---8-----------9-------9-------9------|
|---9—--strum—--10------10------10-----|
|---7-----------7-------7-------7------|
|--------------------------------------|

|-----------------------------------------------|
|-----------------------------------------------|
|-----8--9------8---9----------11-----9---------|
|-----9—-9------9---10—-strum—-10-----10--------|
|-----7—-7------7---7----------7------7---------|
|-----------------------------------------------|

1ST VERSE
        ____________PALM MUTE_____________
       |                                  |
|----------------------------------------------|
|----------------------------------------------|
|---9---9--------------9----11----9-----9------|
|---9---9--------------9----9-----9-----9------|
|---7---7--------------0----0-----0-----7------|
|----------------------------------------------|

|---------------------------|
|---------------------------|
|----9-----9-----9----11----|
|------9-----9--------9-----|
|--7-----7-----7------7-----|
|---------------------------|

|-----------------------------------------------------|
|-----------------------------------------------------|
|--8-8----8-8----8-8----8-8----9-9----9-9----11---9---|
|--9-9----9-9----9-9----9-9----1010---1010---10---10--|
|--7-7----7-7----7-7----7-7----7-7----7-7----7----7---|
|-----------------------------------------------------|

|--------------------------------------------|
|--------------------------------------------|
|--8-8----8-8----8-8----8-8----9-9-----------|
|--9-9----9-9----9-9----9-9----1010---strum--|
|--7-7----7-7----7-7----7-7----7-7-----------|
|--------------------------------------------|

2nd CHORUS

|---------------------------------------|
|---------------------------------------|
|---8-----------9-------11------9-------|
|---9—--strum—--10------10------10------|
|---7-----------7-------7-------7-------|
|---------------------------------------|

|-----------------------------------------------|
|-----------------------------------------------|
|-----8--9------8---9----------11-----9---------|
|-----9—-9------9---10—-strum—-10-----10--------|
|-----7—-7------7---7----------7------7---------|
|-----------------------------------------------|

2nd VERSE

|-----------------------------------------------|
|-----------------------------------------------|
|---8-8---8---------9----------8---------8------|
|---9-9---9—-strum—-11—-strum—-9--strum--11-----|
|---7-7---7---------0----------7---------7------|
|-----------------------------------------------|

|---------------------------------------------------|
|---------------------------------------------------|
|--8-8----8-8----8-8----8-8----8-8-----8-8----------|  X2
|--9-9----9-9----9-9----9-9----1111----1111—strum---|
|--7-7----7-7----7-7----7-7----7-7-----7-7----------|
|---------------------------------------------------|


|-------------------------    |--------| follow |-----|
|-------------------------    |-end-on-|   by   |-----|
|---8---------6----------- X2 |--6~~~--|        |-9~~-|
|---9—-(X16)—-6—-(X16)----    |--6~~~--|        |-9~~-|
|---7---------4-----------    |--4~~~--|        |-7~~-|
|-------------------------    |--------|        |-----|

3rd AND 4TH CHORUS

|-----------------------------|
|-----------------------------|
|------9-------11------9------|
|---—--10------10------10-----|
|------7-------7-------7------|
|-----------------------------|

|-----------------------------------------------|
|-----------------------------------------------|
|-----8--9------8---9----------11-----9---------|
|-----9—-9------9---10—-strum—-10-----10--------|
|-----7—-7------7---7----------7------7---------|
|-----------------------------------------------|

4TH

|----------------------------|--------------------------|
|----------------------------|-dont play dis d 2nd tym--|
|--8-8-----------------9-9---|--------------------------|
|--9-9-----------------1010--|-7/--12-12-12-12-10-10----| x2
|--7-7-----------------7-7---|--------------------------|
|----------------------------|--------------------------|


|--------------------------------------|
|-----------------------12------10-----|
|---8-----------9-------9-------9------|
|---9—--strum—--10------10------10-----|
|---7-----------7-------7-------7------|
|--------------------------------------|

|-----------------------------------------------|
|-----------------------------------------------|
|-----8--9------8---9----------11-----9---------|
|-----9—-9------9---10—-strum—-10-----10--------|
|-----7—-7------7---7----------7------7---------|
|-----------------------------------------------|

ENDING

|------------------------------------|
|------------------------------------|
|--8—-8-----8-----9-----9---8-----8--|
|--9----9-----9-----9-----9---9------|
|--7------7-----7-----7---------7----|
|------------------------------------|

|-------------------------------------------|
|-------------------12------12---10---------|
|----9------9----------9-------9----9----9--|
|------10-----10---------10-----------10----|
|--7------7------7--------------------------|
|-------------------------------------------|

|------------------------------------|
|------------------------------------|
|--8—-8-----8-----9-----9---8-----8--|
|--9----9-----9-----9-----9---9------|
|--7------7-----7-----7---------7----|
|------------------------------------|

|----------------------------------------------x--|
|-----------------------------10-10/s-12-10-9—-9--|
|----9------9------9--------9------------------9--|
|------10-----10-----7/s—9---------------------9--|
|--7------7------7-----------------------------0--|
|----------------------------------------------x--|
            

comments powered by Disqus
↑ Back to top | Dance Gavin Dance Tabs for She Makes Dirty Words Sound Pretty. Lyrics for acoustic guitar and electric guitar. Tablatures and chords are parodies/interpretations of the original songs. You may use it for private study, scholarship, research or language learning purposes only