» » »

Rock Solid Tabs (ver.1)

Artists:  A B C D E F G H I J K L M N O P Q R S T U V W X Y Z # 

Rock Solid Tabs (ver.1)

Dance Gavin Dance
Rating:
0/5 (0 votes)

Hard to play? Try these video lessons and learn fast.
                
Tuning: DADGBe (Drop D)

I only have a few parts to the song but if anyone can get the other parts then I 
would be glad to shoot them in here. So here it is, my first tab.

Intro

0:00 - 0:38

e|-----------14-141414-12-1212---------------------------------------------|
B|---14-1414---------------------14-14h17p14-14h17p14--12------------------|
G|--------------------------------------------------------14-13-13h14------|
D|-------------------------------------------------------------------------|
A|-------------------------------------------------------------------------|
D|-------------------------------------------------------------------------|
                                                               Continued----
e|-----------14-141414-12-1212---14-17-12-14p12----------------------------|
B|---14-1414-----------------------------------14p12-----------------------|
G|--------------------------------------------------14p13h14p13------------|
D|-------------------------------------------------------------14\11-14-11-|
A|-------------------------------------------------------------------------|
D|-------------------------------------------------------------------------|
----Continued
e|-------------------------------------------------------------------------|
B|------+7+----------------------------------------------------------------|
G|13-----------------------------------------------------------------------|
D|---11--------------------------------------------------------------------|
A|-------------------------------------------------------------------------|
D|-------------------------------------------------------------------------|

e|-----------14-141414-12-1212---/12----12----12----12-14b16-14------------|
B|---14-1414-------------------------14----14----14------------------------|
G|-------------------------------------------------------------------------|
D|-------------------------------------------------------------------------|
A|-------------------------------------------------------------------------|
D|-------------------------------------------------------------------------|

e|-----------14-141414-12-1212-----------12--------------------------------|
B|---14-1414-------------------/14p12h14-----------------------------------|
G|------------------------------------------14---13--14--13--14-13-14-13---|
D|-------------------------------------------------------------------------|
A|-------------------------------------------------------------------------|
D|-------------------------------------------------------------------------|

Part 1
0:38 - 1:13
  Play as harmonics cause it's bad-ass-->  + +     +      + + +   +   +
e|-------------------------------------------------------------------------|
B|-----------------------------------13p12-------12--13p12------12--12-----|
G|-----------------------------------------12--12--12-----12--12--12--12---|
D|--10h12------10h12--12p10------------------12-------------12-------------|
A|--------10h12------------1212-xx---(Probably-not-right-but-sounds-good)--|
D|-------------------------------------------------------------------------|

e|-------------------------------------------------------------------------|
B|-------------------------------------------------------------------------|
G|------------------------------------------*Harmonic part same as before*-|
D|--10h12------------------------------------------------------------------|
A|--------10h1212-12b--10h12-1212-10h12-1212-------------------------------|
D|-------------------------------------------------------------------------|
                                                       *Harmonics again* vv
e|-------------------------------------------------------------------------|
B|------------13--12h13p12-------------------------------------------------|
G|-------12h14--12--------14p12--------12h14p12-------12h14h12-------------|
D|--12h14----------------------14p12-----------14p12----------14p12--------|
A|-------------------------------------------------------------------------|
D|-------------------------------------------------------------------------|

e|-------------------------------------------------------------------------|
B|-------------------------------------------------------------------------|
G|------------------------------------------*Harmonic part same as before*-|
D|--10h12------------------------------------------------------------------|
A|--------10h1212-12b--10h12-1212-10h12-1212-------------------------------|
D|-------------------------------------------------------------------------|

Part 2

1:13 - 1:30   No idea yet lol

Part 3 x2

1:30 - 1:54
                                         x2
e|-----------------------------15-12-15-12-|
B|----------------12b----------------------|
G|-------------14-----14-12-14-------------|
D|----------17-----------------------------|
A|-12121212--------------------------------|
D|-----------------------------------------|
                  x2                                   x2
e|----------12h15p12-|-15p12h15p12h17-|----------12h15p12-|----------------|
B|-------------------|----------------|-------------------|-13p12h13p12h15-|
G|-------------------|----------------|-------------------|----------------|
D|-------------------|----------------|-------------------|----------------|
A|-12121212----------|----------------|-12121212----------|----------------|
D|-------------------|----------------|-------------------|----------------|

Part 4 x24

1:54 - 2:11
     
e|------|
B|-/15--|
G|------|
D|------|
A|------|
D|------|

Part 5 x8

2:11 - 2:35
 
I don't even know, but you can pass the time doing this haha            
e|---/19-17-15-12----------------------------------------------------------|
B|-----------------14--15p12h15p12h15p12h15p12h15p12h15p12h15p12h15p-------|
G|-------------------------------------------------------------------------|
D|-------------------------------------------------------------------------|
A|-------------------------------------------------------------------------|
D|-------------------------------------------------------------------------|

Part 6 x 95!!

2:35 - 3:53

e|------|
B|-/15--|
G|------|
D|------|
A|------|
D|------|

That's as much as I have right now, so please send me the other parts if you know them!

Also I hope this wan't too bad.





| /  slide up
| \  slide down
| h  hammer-on
| p  pull-off
| ~  vibrato
| +  harmonic
| x  Mute note
            
Hard to play? Try these video lessons and learn fast. | Correct




comments powered by Disqus
↑ Back to top | Tablatures and chords are parodies/interpretations of the original songs. You may use it for private study, scholarship, research or language learning purposes only