» » »

Purple Reign Tabs (ver.1)

Artists:  A B C D E F G H I J K L M N O P Q R S T U V W X Y Z # 

Purple Reign Tabs (ver.1)

Dance Gavin Dance
Rating:
0/5 (0 votes)
Tabs too difficult? Try these video lessons and learn fast.
                (Intro)
e|--------------------------------|--------------------------------|
B|--------------------------------|-10-10--------------------------|
G|-12-12-9----9----------9----9---|-------9----9----------9----9---|
D|---------12---10-12-12---12---10|---------12---10-12-12---12---10|
A|--------------------------------|--------------------------------|
E|--------------------------------|--------------------------------|
  do this three times               on the four time do this.

on 2:23 it comes up again but its somewhat different

e|--------------------------------|-------------------------------|
B|--------------------------------|-------------------------------|
G|-12-12-9----9----------9----9---|-12-12-9---9----7-7-9-7h9p7\5--|
D|---------12---10-12-12---12---10|---------12--10---------------7|
A|--------------------------------|-------------------------------|
E|--------------------------------|-------------------------------|

e|--------------------------------|-------------------------------|
B|--------------------------------|-10-10-------------------------|
G|-12-12-9----9----------9----9---|-------9---9----7-7-9-7h9p7\5--|
D|---------12---10-12-12---12---10|---------12--10---------------7|
A|--------------------------------|-------------------------------|
E|--------------------------------|-------------------------------|

this is my very first tab, i hope you like it and i will most likely be doing the rest 
of the song when i have this one other part done :)
            
Tabs too difficult? Try these video lessons and learn fast.


comments powered by Disqus
↑ Back to top | Tablatures and chords are parodies/interpretations of the original songs. You may use it for private study, scholarship, research or language learning purposes only