» » »

Dance Gavin Dance, People You Know Tabs (ver.3)

Artists:  A B C D E F G H I J K L M N O P Q R S T U V W X Y Z # 

People You Know Tabs (ver.3)

Dance Gavin Dance Tabs
Rating:
0/5 (0 votes)
People You Know lessons Tabs too difficult? Try these video lessons and learn fast
                people you know


key:
B: Bend.
H: hammer on.
P: pull-off.
~: let ring.
x: muted note (dead note, palm mute etc)



tuning: drop yours down to Drop D, if you haven't already.

heres the first riff:
(0:00-0:08)
|---------------------------------|-------------------------------|
|---------------------------------|---------------6-5---6--5------|
|---------------------------5-----|-----------5h7----7----------5-|
|---------------------7-5----7----|-------5h7-------------7--7----|
|------8--10------7-------8---7---|---7h8-------------------------|
|--0-0---0----0-7---0-------------|-8-----------------------------|


|----------------------------------|---------------------------------|
|----------------------------------|---------------------6-5---------|
|------------------------------5---|-------------------7-----7-------|
|----------------------7-5------7--|----------5h7h8------------------|
|-------8---10------7------8-----7-|-----7h8-------------------------|
|--0-0---0-----0-7---0-------------|--8------------------------------|



SOMEONE PLEASE!
lets write a script thats made for me,
that makes you people want to see me.
i got a wish,
i got a wish,
that all of this was something special.

|--------------------------------------|
|--------------------------------------|
|--9-9-9-9-9-9--10-10-10--12-12-12-----|
|--x-x-x-x-x-x---x--x--x---x--x--x-----|        x3
|--7-7-7-7-7-7---8--8--8--10-10-10-----|
|--------------------------------------|

|-------------------|
|-------------------|
|--9-9-9--7-7-7-----|
|--x-x-x--x-x-x-----|     x2
|--7-7-7--5-5-5-----|
|-------------------|

|-----------------------------------|
|-----------------------------------|
|--9-9-9-9-9-9--10-10-10--12-12-12--|
|--x-x-x-x-x-x---x--x--x---x--x--x--| x2
|--7-7-7-7-7-7---8--8--8--10-10-10--|
|-----------------------------------|

or i could just get a real f**kin' job.

|----------------------|
|----------------------|
|--17--14--14--12--12--|
|---x---x--x----x--x---|
|--15--12--12--10--10--|
|----------------------|

i am a prick, look at my throat.
i can get lucky finding success, i'm a b**ch.

IMA GO GET SOME NEW EXPENSIVE sh*t.

|----------------------|
|----------------------|
|--17--14--14--12--12--|
|---x---x--x----x--x---|
|--15--12--12--10--10--|
|----------------------|


all that i hurt, emotions, they suck.


|---------------------------------|
|---------------------------------|
|--9-9-9-9-9-9--10-10-10--12-12-12|
|--x-x-x-x-x-x---x--x--x---x--x--x| x2
|--7-7-7-7-7-7---8--8--8--10-10-10|
|---------------------------------|

I'll just tell people, i don't give a f**k about that sh*t.
|----------------------|
|----------------------|
|--14-14-14----12-12-12|
|---x--x--x-----x--x--x|
|--12-12-12----10-10-10|
|----------------------|


this next part is like a solo in way, listen to the song to learn the beat.



|----------------------------|
|----13----13----13----13----|
|----------------------------|
|--0-----0-----0-----0-------|
|----------------------------|
|----------------------------|


|----------------------------|
|----10---10----10----10-----|
|----------------------------|
|--0-----0-----0-----0-------|
|----------------------------|
|----------------------------|

ain't nobody f**king with me...maaan.
ain't nobody f**kin' with me.
|--17-13------------------------------|
|--------15-13-----13-15-17p15-13-----|      pick fast on this one.
|---------------14--------------------|  play this & the riffs above x2.
|-------------------------------------|
|-------------------------------------|
|-------------------------------------|


listen to the sound of my voice croaking it's drama across an
orchestra of friendly faces singing along with a dying concern.

|------------------------------------------|
|------------------------------------------|
|--14--17--12--14--7-----14--17--12--14----| let these ring for
|---x---x---x---x--x------x---x---x---x----| half a second.
|--12--15--10--12--5-----12--15--10--12-12-|
|------------------------------------------|

listen to the sound of my voice croaking it's drama across an argh-restra of friendly 
singing along with a dying concern to my BULL SHIEEEEET.

|-------------------------------------------|
|-------------------------------------------|
|--14-14-14--17-17-17--12-12-12--14-14-14---|
|---x--x--x---x--x--x---x--x--x---x--x--x---|
|--12-12-12--15-15-15--10-10-10--12-12-12---|
|-------------------------------------------|


|--------------------------------|
|--------------------------------|
|--7-7-7--5-5-5--7-7-7--5-5-5----|
|--x-x-x--x-x-x--x-x-x--x-x-x----|
|--5-5-5--3-3-3--5-5-5--3-3-3----|
|--------------------------------|

|---------------------------------------------|
|---------------------------------------------|
|--14-14-14--17-17-17--12-12-12--14-14-14-----|
|---x--x--x---x--x--x---x--x--x---x--x--x-----|
|--12-12-12--15-15-15--10-10-10--12-12-12--12-|
|---------------------------------------------|

|---------------------------------------------------------|
|---------------------------------------------------------|
|--15-15-15--17-17-17--12-12-12--14-14-14--10-10-10--9-9-9|
|---x--x--x---x--x--x---x--x--x---x--x--x---x--x--x--x-x-x|  x4
|--13-13-13--15-15-15--10-10-10--12-12-12---8--8--8--7-7-7|
|---------------------------------------------------------|

|--------------------------------------|
|-----------13-17-13----------13-17-13-|
|--------15----------------15----------|
|-----14----------------14-------------|    play this x3.
|--13----------------13----------------|
|--------------------------------------|

|-----------------------|
|-----------------------|
|-------------14--10----|    play this x3.
|--12-12--15------------|
|-----------------------|
|-----------------------|



well thats the whole song.
your welcome. :D

LYRICS:


Someone please!
Let's write a script that's made for me
That makes you people want to see me
I've got a wish, I've got a wish
That all of this was something special
I need a drink, I need a pill
No way I'll stop until you're sober
She's already said that I was on drugs,
Let's give some money to that b**ch.

Or I could just get a real f**king job

I am a prick, look at me go
I could get lucky finding success, I'm a b**ch
Imma go get some new expensive sh*t
All that I hurt, emotions they suck
I'll just tell people I don't give a f**k about that sh*t

Ain't nobody f**king with me, man
Ain't nobody f**king with me

Listen as the sound of my voice,
croaking it's drama across an orchestra of friendly faces
singing along their dying concern

Listen as the sound of my voice,
croaking it's drama across an orchestra of friendly faces
singing along, their dying concern to my bullsh*t

Where did our honor go? I think I know
We're always f**king each other in bathrooms at parties
Where did my money go? I spent it on blow
You know that I f**ked all my homies ho's
Where did our morals go? I left them in Cabo
My parents can pay for the abortion, you know
Who has a plan? We hold out our hands,
and hope for a free ride to successful endeavors


So bring on the pliers, something to bite
I am too cynical to say I don't give a f**k
Bring on the pliers, something to bite
I am too cynical to say I don't give a f**k

I need money
I need clothes
I need women
I need blow

Something is very f**king wrong...

Resting your head on your best friend's sister's shoulder
Your mother's job is to f**k all your neighbors
Bodies thrusting to the beat of our shame

Where did our honor go? I think I know
We're always f**king each other in bathrooms at parties
Where did my money go? I spent it on blow
You know that I f**ked all my homies ho's
Where did our morals go? I left them in Cabo
My parents can pay for the abortion, you know
Who has a plan? We hold out our hands,
and hope for a free ride to successful endeavors

Give my regards to all you SHADY FUUUUUCKS.
Thorn in my f**king side!

Loyalty...

Honesty...

Trust...

Respect...

Humility...

Sincerity...

We are all so full of f**king sh*t


We are all so full of f**king sh*t




if you listen to the whole song, you can hear Johnny or Kurt say this with some kind of mouse ;)

"Uneasy hearts weigh the most, oh uneasy hearts they weigh the most...
Maybe i can find a place for you with all the things you do,
I have no clue, watching you, lately I, have been hoping to,
in thought of what to say, what they don't find out"
            

comments powered by Disqus
↑ Back to top | Dance Gavin Dance Tabs for People You Know. Lyrics for acoustic guitar and electric guitar. Tablatures and chords are parodies/interpretations of the original songs. You may use it for private study, scholarship, research or language learning purposes only