>
 >
People You Know

People You Know Guitar Tabs

Dance Gavin Dance - People You Know chords, tabs, tablatures, lyrics

Guitar lessons | Add/correct | Request | Top 50 tabs Artists:  A B C D E F G H I J K L M N O P Q R S T U V W X Y Z 0-9

People You Know Guitar Tabs – Dance Gavin Dance

CD, Sheet music, Poster

Do you like People You Know? Share with your friends now
TabsTabs v2
I rushed this tab so it's quite messy. but, it's pretty accurate. Andrew12398 
helped with this tab as well. 




E||---------------------------------|
B||---------------------------------|
G||--9-9-9-9-9-9--10-10-10--12-12-12|
D||--x-x-x-x-x-x---x--x--x---x--x--x| x3
A||--7-7-7-7-7-7---8--8--8--10-10-10|
D||---------------------------------|
                 
|--------------|
|--------------|
|--9-9-9--7-7-7|
|--x-x-x--x-x-x|
|--7-7-7--5-5-5|
|--------------|

Repeat the bars above twice.

|---------------------------------|
|---------------------------------|
|--9-9-9-9-9-9--10-10-10--12-12-12|
|--x-x-x-x-x-x---x--x--x---x--x--x| x2
|--7-7-7-7-7-7---8--8--8--10-10-10|
|---------------------------------|

|------------|
|------------|
|--17--14--12|
|---x---x---x|
|--15--12--10|
|------------|

|---------------------------------|
|---------------------------------|
|--9-9-9-9-9-9--10-10-10--12-12-12|
|--x-x-x-x-x-x---x--x--x---x--x--x| x2
|--7-7-7-7-7-7---8--8--8--10-10-10|
|---------------------------------|

|----------------------|
|----------------------|
|--14-14-14----12-12-12|
|---x--x--x-----x--x--x|
|--12-12-12----10-10-10|
|----------------------|


|------------------------------------------------|
|----13----13----13----13----10----10----10----10|
|------------------------------------------------|
|--0-----0-----0-----0-----0-----0-----0-----0---|
|------------------------------------------------|
|------------------------------------------------|


|--17-13------------------------------------------|
|--------15-13----13-15-17-15-13-----13---13----13|
|--------------14---------------------------------|
|----------------------------------0----0-----0---|  x3
|-------------------------------------------------|
|-------------------------------------------------|

|------------------------------------------|
|------------------------------------------|
|--14--17--12--14--7-----14--17--12--14----|
|---x---x---x---x--x------x---x---x---x----|
|--12--15--10--12--5-----12--15--10--12-12B|
|------------------------------------------|

|----------------------------------------|
|----------------------------------------|
|--14-14-14--17-17-17--12-12-12--14-14-14|
|---x--x--x---x--x--x---x--x--x---x--x--x|
|--12-12-12--15-15-15--10-10-10--12-12-12|
|----------------------------------------|

|----------------------------|
|----------------------------|
|--7-7-7--5-5-5--7-7-7--5-5-5|
|--x-x-x--x-x-x--x-x-x--x-x-x|
|--5-5-5--3-3-3--5-5-5--3-3-3|
|----------------------------|

|---------------------------------------------|
|---------------------------------------------|
|--14-14-14--17-17-17--12-12-12--14-14-14-----|
|---x--x--x---x--x--x---x--x--x---x--x--x-----|
|--12-12-12--15-15-15--10-10-10--12-12-12--12B|
|---------------------------------------------|

|---------------------------------------------------------|
|---------------------------------------------------------|
|--15-15-15--17-17-17--12-12-12--14-14-14--10-10-10--9-9-9|
|---x--x--x---x--x--x---x--x--x---x--x--x---x--x--x--x-x-x|  x4
|--13-13-13--15-15-15--10-10-10--12-12-12---8--8--8--7-7-7|
|---------------------------------------------------------|

  PM PM PM PM PM PM PM PM PM PM PM PM       PM PM PM PM PM 
|--------------------------------------|  |----------------|
|-----------13-17-13----------13-17-13-|  |----------------|
|--------15----------------15----------|  |-----------14-10|
|-----14----------------14-------------|x3|--12-12-15------|  x3
|--13----------------13----------------|  |----------------|
|--------------------------------------|  |----------------|





Comments


Popular Dance Gavin Dance tabs & chords
Me And Zoloft Get Along Just Fine Bass Tabs
The Robot With Human Hair Part 3 Bass Tabs
Reprogramming Mental Preprogramming Chords
Attack Of The Dashing Young And Bold Tabs
Elder Goose Tabs
Its Safe To Say You Dig The Backseat Intro 1 Tabs
Lemon Meringue Tie 2 Tabs
Lemon Meringue Tie 4 Tabs
Self-trepanation Tabs
Strawberry Swisher Part 1 Intro Tabs


Song lyrics



↑ Back to top | Tablatures and chords are parodies/interpretations of the original songs. You may use it for private study, scholarship, research or language learning purposes only
© 2014 AZChords.com Contact us | Privacy policy | DMCA | Add/correct tabs | Request tabs | Top 50 tabs