» » »

Dance Gavin Dance, Open Your Eyes And Look North Tabs (ver.1)

Artists:  A B C D E F G H I J K L M N O P Q R S T U V W X Y Z # 

Open Your Eyes And Look North Tabs (ver.1)

Dance Gavin Dance Tabs
Rating:
0/5 (0 votes)
Hard to play? Try these video lessons and learn fast.
                (Intro)
          Open Your Eyes and Look North - Dance Gavin Dance

Tuning: Drop d
They don't use their top string very much but I assume they are in drop d
because they are somewhat hardcore but you can play this in either standard or
drop d it dosen't really matter.

Play 4 times: clean
e|--------------------9h11-11---------------------------------|
B|--------11--------------------------------------------------|
G|-8h11p8----8--9-11----------8-8-8-------11-11-11----------8-|
D|----------------------------------9-9-9----------11-11-11---|
A|------------------------------------------------------------|
D|------------------------------------------------------------|

  the rest of the intro has distortion
e|-------------------------------------------------------------------------|
B|-11-11-11-11-11-11-11-11-11-11-11-11-11-11-11-11-12-12-12-12-12-12-12-12-|
G|-------------------------------------------------------------------------|
D|-------------------------------------------------------------------------|
A|-------------------------------------------------------------------------|
D|-------------------------------------------------------------------------|
   I can't feel your skin...

e|-------------------------11-11-11-11-11-11-9-9-9-9-9-9-9-9-9-9-11-11-11--|
B|-12-12-12-12-12-12-12-12-------------------------------------------------|
G|-------------------------------------------------------------------------|
D|-------------------------------------------------------------------------|
A|-------------------------------------------------------------------------|
D|-------------------------------------------------------------------------|

e|-11-11-11-9-9-9-9-9-9-9-9-9-9--------------------------------------------|
B|------------------------------11-11-11-11-11-11-11-11-11-11-11-11-11-11--|
G|-------------------------------------------------------------------------|
D|-------------------------------------------------------------------------|
A|-------------------------------------------------------------------------|
D|-------------------------------------------------------------------------|

e|-------------------------------------------------------11-11-11-11-11-11-|
B|-11-11-12-12-12-12-12-12-12-12-12-12-12-12-12-12-12-12-------------------|
G|-------------------------------------------------------------------------|
D|-------------------------------------------------------------------------|
A|-------------------------------------------------------------------------|
D|-------------------------------------------------------------------------|

e|-9-9-9-9-9-9-9-9-9-9-14-14-14-14-14-14-14-14-14-14-14-14-14-14-14-14-----|
B|-------------------------------------------------------------------------|
G|-------------------------------------------------------------------------|
D|-------------------------------------------------------------------------|
A|-------------------------------------------------------------------------|
D|-------------------------------------------------------------------------|


| /  slide up
| \  slide down
| h  hammer-on
| p  pull-off
| ~  vibrato
| +  harmonic
| x  Mute note
            

comments powered by Disqus
↑ Back to top | Dance Gavin Dance Tabs for Open Your Eyes And Look North. Lyrics for acoustic guitar and electric guitar. Tablatures and chords are parodies/interpretations of the original songs. You may use it for private study, scholarship, research or language learning purposes only