» » »

Open Your Eyes And Look North Tabs (ver.3)

Artists:  A B C D E F G H I J K L M N O P Q R S T U V W X Y Z # 

Open Your Eyes And Look North Tabs (ver.3)

Dance Gavin Dance
Rating:
0/5 (0 votes)

Tabs too difficult? Try these video lessons and learn fast.
                this is some of the song by rafael

this part is when he says "i never realize"
-----------------------------------------------------------|
-----------------------------------------------------------|
--21-21-21-21-21-21-21-21-21-17-17-17-17-17-17-17-17-17-17-|
-----------------------------------------------------------|
-----------------------------------------------------------|
-----------------------------------------------------------|
-----------------------------------------------------------|


-----------------------------------------------------------|
18-18-18-18-18-18-18-18-18-18------------------------------|
-----------------------------------------------------------|     \  x3
-----------------------------------------------------------|     /
-----------------------------------------------------------|
-----------------------------------------------------------|


------------------------------19-19-19-19-21-21-21-21----------------|
------------------------------------------------------19-19-19-19----|
21-21-21-21-21-21-21-21-21-21----------------------------------------|
---------------------------------------------------------------------|   x3
---------------------------------------------------------------------|
---------------------------------------------------------------------|


19-19-19-18-18-18------------------------------------------------|
------------------19-19-19-19------------------------------------|
------------------------------19-19-18-17-17---------------------|
-----------------------------------------------------------------|  x2
-----------------------------------------------------------------|
-----------------------------------------------------------------|

19----18------------------19---18------21-----19-----------------|
--------------19-------------------------------------------------|
-----------------------------------------------------------------|
-----------------------------------------------------------------|
-----------------------------------------------------------------|
-----------------------------------------------------------------|


19-19-19-18-18-18------------------------------------------------|
------------------19-19-19-19------------------------------------|
------------------------------19-19-18-17-17---------------------|
-----------------------------------------------------------------|  x2
-----------------------------------------------------------------|
-----------------------------------------------------------------|

19----18------------------19---18------21-----19-----------------|
--------------19-------------------------------------------------|
-----------------------------------------------------------------|
-----------------------------------------------------------------|
-----------------------------------------------------------------|
-----------------------------------------------------------------|


thats all i kno so far
            
Tabs too difficult? Try these video lessons and learn fast.




comments powered by Disqus
↑ Back to top | Tablatures and chords are parodies/interpretations of the original songs. You may use it for private study, scholarship, research or language learning purposes only