» » »

Dance Gavin Dance, Open Your Eyes And Look North Bass tabs (ver.1)

Artists:  A B C D E F G H I J K L M N O P Q R S T U V W X Y Z # 

Open Your Eyes And Look North Bass tabs (ver.1)

Dance Gavin Dance Tabs
 Rating:
4/5 (4 votes)
Open Your Eyes And Look North lessons Tabs too difficult? Try these video lessons and learn fast
1
                Open Your Eyes And Look North (bass tab)

Dance Gavin Dance

Tuning: Drop D (DADG) The entire song is played on the D string
This is my first tab ever, its about 99% correct.


Bass comes in at 00:37

|-------------------------------------------------------------|
|-------------------------------------------------------------|
|-------------------------------------------------------------|
|66666-66666-666666666-66666-666666666------------------------|

|-------------------------------------------------------------|
|-------------------------------------------------------------|
|-------------------------------------------------------------|
|66666-666666666-66666-666666666-66666------------------------|

|-------------------------------------------------------------|
|-------------------------------------------------------------|
|-------------------------------------------------------------|
|666666666-66666-666666666-66666-66666666---------------------|

|-------------------------------------------------------------|
|-------------------------------------------------------------|
|-------------------------------------------------------------|
|66666-66666--------------------------------------------------|

1:01
[Repeat 2x] (This part needs a bit more work)

|-------------------------------------------------------------|
|-------------------------------------------------------------|
|-------------------------------------------------------------|
|0-0p1-1-0p1--0p1-1-1---0p1-1-0p1-0p1-1-1---------------------|

|-------------------------------------------------------------| 
|-------------------------------------------------------------|
|-------------------------------------------------------------|
|1h4p6-4p6-4p6-6-6-6p8-8p10101010101010101010-----------------| (That's 10)

1:31

|-------------------------------------------------------------|
|-------------------------------------------------------------|
|-------------------------------------------------------------|
|0h6-6-6-6-6-6-6-6-8-8-8-8-8-8-8888---------------------------|

|-------------------------------------------------------------|
|-------------------------------------------------------------|
|-------------------------------------------------------------|
|1-1-1-1-1-1-1-1-8-8-8-8-7-7-7-7-0p5-5-5-5-5------------------|

|-------------------------------------------------------------|
|-------------------------------------------------------------|
|-------------------------------------------------------------|
|5-5-5-99999999999999999-1-1-1-1-1-1-1-1-8-8-8-8--------------|

|-------------------------------------------------------------|
|-------------------------------------------------------------|
|-------------------------------------------------------------|
|7-7-7-77777--------------------------------------------------|

1:55

[Chorus]

|-------------------------------------------------------------|
|-------------------------------------------------------------|
|-------------------------------------------------------------|
|1-1-11111-10-10-10-10-10-10----------------------------------|

|-------------------------------------------------------------|
|-------------------------------------------------------------|
|-------------------------------------------------------------|
|6666666666666666666666---------------------------------------|

|-------------------------------------------------------------|
|-------------------------------------------------------------|
|-------------------------------------------------------------|
|8888888888888888888888/1-1-1-1-1-1p0h10-10-10-10-10-10-------|

|-------------------------------------------------------------|
|-------------------------------------------------------------|
|-------------------------------------------------------------|
|66666666666666666666668888888888888888888888-----------------|

2:24
[Repeat 4x]

|--------------------------------------------------------|
|--------------------------------------------------------|
|--------------------------------------------------------|
|0p6-6-6-6-6--6-6-6-6-6-6-6-6-4-4-4-4-4--4-4-4-4-4-4-4-4-|

2:54

|-------------------------------------------------------------|
|-------------------------------------------------------------|
|-------------------------------------------------------------|
|1-1-11111-10-10-10-10-10-10----------------------------------|

|-------------------------------------------------------------|
|-------------------------------------------------------------|
|-------------------------------------------------------------|
|6666666666666666666666---------------------------------------|

|-------------------------------------------------------------|
|-------------------------------------------------------------|
|-------------------------------------------------------------|
|8888888888888888888888/1-1-1-1-1-1p0h10-10-10-10-10-10-------|

|-------------------------------------------------------------|
|-------------------------------------------------------------|
|-------------------------------------------------------------|
|66666666666666666666668888888888888888888888-----------------|

3:17
[Repeat 2x]

|-------------------------------------------------------------|
|-------------------------------------------------------------|
|-------------------------------------------------------------|
|1-1-1-1-1--1-1-1-1-1-4-4-4-4-4--4-4-4-4-4--------------------|

|-------------------------------------------------------------|
|-------------------------------------------------------------|
|-------------------------------------------------------------|
|6-6-6-6-6--6-6-6-6-6--6-6-6-6-6---6-6-6-6-6------------------|

3:44

|-------------------------------------------------------------|
|-------------------------------------------------------------|
|-------------------------------------------------------------|
|12-12-12-12-12p13-13-13-13-13--------------------------------|

|-------------------------------------------------------------|
|-------------------------------------------------------------|
|-------------------------------------------------------------|
|-12-12-12-12-12-12\17-17-17-17-17----------------------------|

|-------------------------------------------------------------|
|-------------------------------------------------------------|
|-------------------------------------------------------------|
|12-12-12-12-12-12p13-13-13-13-12-12-12-12--------------------|

|-------------------------------------------------------------|
|-------------------------------------------------------------|
|-------------------------------------------------------------|
|12-12-12-12-12-12\17-17-17-17-16-16-16-16--------------------|

[Repeat 4x]

|-------------------------------------------------------|
|-------------------------------------------------------|
|-------------------------------------------------------|
|66-55-11-22--------------------------------------------|

[On the last repeat play]

|66-55-1~


*Key*

h...hammer on

p...pull off

/...slide down

\...slide up

~...hold the note
            
Submit corrections

comments powered by Disqus
↑ Back to top | Dance Gavin Dance Bass for Open Your Eyes And Look North. Lyrics for acoustic guitar and electric guitar. 1 Tablatures and chords are parodies/interpretations of the original songs. You may use it for private study, scholarship, research or language learning purposes only