» » »

Dance Gavin Dance, Nasa Tabs (ver.3)

Artists:  A B C D E F G H I J K L M N O P Q R S T U V W X Y Z # 

Nasa Tabs (ver.3)

Dance Gavin Dance Tabs
 Rating:
4/5 (4 votes)
Nasa lessons Tabs too difficult? Try these video lessons and learn fast
1
                intro:
e|-------14---------------------------------------------------14------------|
B|-12--17----15--(x3)---8p0--0--10p0--0--8p0-0--8h10---12--17-----15--(x3)--|
G|--------------------------------------------------------------------------|
D|--------------------------------------------------------------------------|
A|--------------------------------------------------------------------------|
E|--------------------------------------------------------------------------|

e|--------------------------------------------------------------------------|
B|-8p0--0--10p0--0--8p0--0--8h10--------------------------------------------|
G|--------------------------------------------------------------------------|
D|--------------------------------------------------------------------------|
A|--------------------------------------------------------------------------|
E|--------------------------------------------------------------------------|

e|--------14----------------------------------------------------------------|
B|-12--17----15--(x3)---8p0--0--10p0--0--8p0--0--8h10-----------------------|
G|--------------------------------------------------------------------------|
D|--------------------------------------------------------------------------|
A|--------------------------------------------------------------------------|
E|--------------------------------------------------------------------------|

e|--------14----------------------------------------------------------------|
B|-12--17----15--(x3)---8p0--0--10p0--0--8p0--0--8h10-----------------------|
G|--------------------------------------------------------------------------|
D|--------------------------------------------------------------------------|
A|--------------------------------------------------------------------------|
E|--------------------------------------------------------------------------|

e|--------14----------------------------------------------------------------|
B|-12--17----15--(x3)---8p0--0--10p0--0--8p0--0--8h10-----------------------|
G|--------------------------------------------------------------------------|
D|--------------------------------------------------------------------------|
A|--------------------------------------------------------------------------|
E|--------------------------------------------------------------------------|

e|--------14----------------------------------------------------------------|
B|-12--17----15--(x3)---8p0--0--10p0--0--8p0--0--8h10p8--10/12--------------|
G|--------------------------------------------------------------------------|
D|--------------------------------------------------------------------------|
A|--------------------------------------------------------------------------|
E|--------------------------------------------------------------------------|

verse
e|----------7-----------8-7--------------10----------10---------------------|
B|-555--888----555--888-----8---555--888----555--888----555--8--------------|
G|--------------------------------------------------------------------------|
D|--------------------------------------------------------------------------|
A|--------------------------------------------------------------------------|
E|--------------------------------------------------------------------------|

e|----------------14-----------------15-14-10---12-7-10-7-------------------|
B|-121212--151515-----121212--151515----------------------------------------|
G|--------------------------------------------------------------------------|
D|--------------------------------------------------------------------------|
A|--------------------------------------------------------------------------|
E|--------------------------------------------------------------------------|

e|----------7-----------8-7-------------10-----------10---------------------|
B|-555--888----555--888-----8--555--888-----555--888-----555-8--------------|
G|--------------------------------------------------------------------------|
D|--------------------------------------------------------------------------|
A|--------------------------------------------------------------------------|
E|--------------------------------------------------------------------------|

e|----------------14-----------------15-14-10---12-7-10-7--7-5-7--10-7-12-5-|
B|-121212--151515-----121212--151515----------------------------------------|
G|--------------------------------------------------------------------------|
D|--------------------------------------------------------------------------|
A|--------------------------------------------------------------------------|
E|--------------------------------------------------------------------------|

e|----14----14---14h15p14------------14-----14---14-15-17------14---14------|
B|-12----12----------------12----12------12-----------------12----12--------|
G|--------------------------------------------------------------------------|
D|--------------------------------------------------------------------------|
A|--------------------------------------------------------------------------|
E|--------------------------------------------------------------------------|

e|-14h15p14----------14-----14---14-15-17-----------------------------------|
B|----------12----12-----12-------------------------------------------------|
G|------------------------------------------(x2)----------------------------|
D|--------------------------------------------------------------------------|
A|--------------------------------------------------------------------------|
E|--------------------------------------------------------------------------|

thats it for now..definitely more comin tho..enjoy
            
Submit corrections

comments powered by Disqus
↑ Back to top | Dance Gavin Dance Tabs for Nasa. Lyrics for acoustic guitar and electric guitar. 1 Tablatures and chords are parodies/interpretations of the original songs. You may use it for private study, scholarship, research or language learning purposes only