» » »

Dance Gavin Dance, Happiness Bass tabs (ver.1)

Artists:  A B C D E F G H I J K L M N O P Q R S T U V W X Y Z # 

Happiness Bass tabs (ver.1)

Dance Gavin Dance Tabs
Rating:
0/5 (0 votes)
Happiness lessons Tabs too difficult? Try these video lessons and learn fast
                My first tab ever. let me know if i need to make some improvments, would be more than 
to take in advice.

G|---------------------------------------|
D|--------------------55555555-55555555--|
A|--33333333-55555555--------------------|
E|---------------------------------------|


G|-----------------------------------------------------------------|
D|--------------------55555555-55555555-----------------------6~---|
A|--33333333-55555555---------------------3~-----------------------|
E|-----------------------------------------------------------------|


G|----------5--5--5-------------------------------------------------|
D|----------------------------8--8--8------------686----------------|
A|--33 3 3------------66 6 6--------------------8---86--------------|   x3
E|--------------------------------------44 4 4---------11-1-1-3-3-3-|

G|----------5--5--5----------------------------------------------------|
D|----------------------------8--8--8------------686-------------------|
A|--33 3 3------------66 6 6--------------------8---86--------------3~-|
E|--------------------------------------44 4 4---------11-1-1-3-3-3----|


G|----------------------------355555355555355555588888----|
D|--6666666666668333333333333-----------------------------|
A|--------------------------------------------------------|
E|--------------------------------------------------------|


G|--------------------------------------------------------|
D|--66666666666683333333333335----------------------------|
A|----------------------------33333133333133333316666666--|
E|--------------------------------------------------------|


G|----------------------------355555355555355555588888--|
D|--6666666666668333333333333---------------------------|
A|------------------------------------------------------|
E|------------------------------------------------------|


G|-----------------------------------------------------------------------|
D|--66666666666683333333333335-------------------------------------------|
A|----------------------------33333133333133333313333~-----6~---------8~-|
E|--------------------------------------------------------------4~-------|


G|---------------------|
D|---------------------|
A|3~----6~----------8~-|
E|-----------4~--------|


G|----------5--5--5-------------------------------------------------|
D|----------------------------8--8--8------------686----------------|
A|--33 3 3------------66 6 6--------------------8---86--------------|   x3
E|--------------------------------------44 4 4---------11-1-1-3-3-3-|


G|----------5--5--5-------------------------------------------------|
D|----------------------------8--8--8------------686----------------|
A|--33 3 3------------66 6 6--------------------8---86--------------|
E|--------------------------------------44 4 4---------1~-----------|


G|----------------------------355555355555355555588888----|
D|--6666666666668333333333333-----------------------------|
A|--------------------------------------------------------|
E|--------------------------------------------------------|


G|--------------------------------------------------------|
D|--66666666666683333333333335----------------------------|
A|----------------------------3333313333313333331---------|
E|--------------------------------------------------------|

G|---------------------------------------|
D|--------------------55555555-55555555--|
A|--33333333-55555555--------------------|    x2
E|---------------------------------------|

G|--------------|
D|--------------|
A|--------------|       X9
E|--8888888-----|

G|--------------|
D|--------------|
A|--------------|
E|--8888888\----|
            
Submit corrections

comments powered by Disqus
↑ Back to top | Dance Gavin Dance Bass for Happiness. Lyrics for acoustic guitar and electric guitar. Tablatures and chords are parodies/interpretations of the original songs. You may use it for private study, scholarship, research or language learning purposes only