» » »

Don't Tell Dave Bass tabs (ver.1)

Artists:  A B C D E F G H I J K L M N O P Q R S T U V W X Y Z # 

Don't Tell Dave Bass tabs (ver.1)

Dance Gavin Dance
Rating:
0/5 (0 votes)

Hard to play? Try these video lessons and learn fast.
                GO TO THE BOTTOM OF PAGE TO SEE THE SONG SETUP THANKS.


Standard Tuning

Intro (10th fret not 1st and open, also you can play the hammer ons as slides if 
you want, right way is hammer ons)

G|1010101010--6h8-6------6h8-6---|
D|-----------------66666-------6-|
A|-------------------------------|
E|-------------------------------|


Verse

G|------------------------------------------------------|
D|---------------------134-4-4-431-1-------0h1------0h1-|
A|-1-1-11-34-44-44-44----------------1-11-----1-11------|
E|------------------------------------------------------|


Chorus
G|--------------------------------------------------------------------------|
D|--------------------------------------------------------------------------|
A|------------------------------------------------------9h11-11h13-9h11-----|
E|-9/18-9/18-9/18-9/18--9-11--9/18-9/18-9/18-9/18--9-11----------------9h11-|


*THERE IS ANOTHER PART AFTER THE CHORUS. I AM CURRENTLY TRYING TO FIGURE IT OUT*



Intro: 4 times
Verse: 2 times
Chorus: 2 times
Un-tabbed part: 4 times
Chorus: 3 times
Un-tabbed Part: 4 times
Verse: 10 times
            
Hard to play? Try these video lessons and learn fast. | Correct




comments powered by Disqus
↑ Back to top | Tablatures and chords are parodies/interpretations of the original songs. You may use it for private study, scholarship, research or language learning purposes only