» » »

Dance Gavin Dance, Attack Of The Dashing Young And Bold Tabs (ver.4)

Artists:  A B C D E F G H I J K L M N O P Q R S T U V W X Y Z # 

Attack Of The Dashing Young And Bold Tabs (ver.4)

Dance Gavin Dance Tabs
 Rating:
4/5 (4 votes)
Attack Of The Dashing Young And Bold lessons Tabs too difficult? Try these video lessons and learn fast
1
                Things you should know:

1. This is another tab I have no idea of when I'm going to finish it.
2. When I saw some tabs here, I got bothered by some parts that SOUNDED
   totally wrong to me, here is what I THINK is closest to the right way.
   I don't intend to disrespect the other people's work.
3. I learned it by ear long time ago, so it won't be perfect as well.
4. I plan to correct which is the right/left speaker guitar or 
   just reffer as lead and rhythm guitars.
5. I will also post a version for a single guitar player.


Guitar 1:
E|-------------------------------------------------------------| 
B|-------------------------------------------------------------|
G|---4-4--4-4--4-4--4-4--4-4-4-4--2-2--2-2--2-2----------------|(4x)
D|---0-0--0-0--0-0--0-0--0-0-0-0--2-2--2-2--2-2--4-4--4-4-4-4--|
A|---3-3--3-3--3-3--3-3--3-3-3-3--0-0--0-0--0-0--2-2--2-2-2-2--|
D|-------------------------------------------------------------|

Guitar 2(after Guitar 1 second time):
E|-------------12-12-|
B|-12-12-------------|
G|-------12-12-------|(8x)
D|-------------------|
A|-------------------|
E|-------------------|

Guitar 1:
E|---------------------------------------------|
B|---------------------------------------------|
G|-------0---------------------0---------------| (2x)
D|-----4---4-----------------4---4-------------|
A|---------------------------------------------|
D|---5---------------------5-------------------|

Guitar 2:
E|---------------------------------------------|
B|-------------(7)-(7)---------------(7)-------|
G|--------------(7)-(7)---------------(7)------| (2x)
D|-------------------------------------(7)-----|
A|---------------------------------------------|
D|---------------------------------------------|
Guitar 1:
E|-------------------|-------------------|-------------------|
B|---------3---------|---------3---------|-------------------|
G|-----0-----0---0---|-----0-----0---0---|-------------------| (4x)
D|---4---4-----4-----|---4---4-----4-----|-----44------44----|
A|-2-----------------|-2-----------------|---55--55--55--55--|
D|-------------------|-------------------|-55------55------55|

Guitar 2 (not sure):
E|-------------------|-------------------|-----22------22----|
B|-7~~---------------|-8~~---------------|---33------33------|
G|-x--(let it ring)--|-x--(let it ring)--|-44------44--------| (2x)
D|-9~~---------------|-9~~---------------|-------------------|
A|-9~~---------------|-10~---------------|-------------------|
D|-------------------|-------------------|-------------------|

E|-------------------|-------------------|------------------------------|
B|-7~~---------------|-8~~---------------|------------------------------|
G|-x--(let it ring)--|-x-----------------|-11-11------12-12--12-11-11-11|
D|-9~~---------------|-9~~---------------|- x- x-(3x)- x- x-- x- x- x- x|(2x)
A|-9~~---------------|-10~---------------|-10-10------10-10--10-10-10-10|
D|-------------------|-------------------|------------------------------|

Guitar 1:
E|-----------------|    |-----------------|------------------|
B|-----------------|    |-----------------|------------------|
G|-----------------|(2x)|-----------------|------------------|
D|2--2--2----------|    |5--5--5---x-x-x-x|-5--5--5----------|
A|2--2--2----------|    |5--5--5---x-x-x-x|-5--5--5----------|
E|2--2--2----------|    |5--5--5---x-x-x-x|-5--5--5----------|

Guitar 2:
E|-----------------|    |-----------------|------------------|
B|---------- 8-(4x)|    |-----------------|-----------13-(4x)|
G|----------11-----|(2x)|-----------------|-----------16-----|
D|-----------------|    |----------x-x-x-x|------------------|
A|-----------------|    |----------x-x-x-x|------------------|
E|-----------------|    |----------x-x-x-x|------------------|


Guitar 1:
E|---------------------------------------------|
B|---------------------------------------------|
G|-------0---------------------0---------------|
D|-----4---4-----------------4---4-------------|
A|---------------------------------------------|
D|---5---------------------5-------------------|

Guitar 2:
E|---------------------------------------------|
B|-------------(7)-(7)---------------(7)-------|
G|--------------(7)-(7)---------------(7)------|
D|-------------------------------------(7)-----|
A|---------------------------------------------|
D|---------------------------------------------|

Staccato part

Guitar 1:
E|--------|--------|
B|--------|--------|
G|11------|16------|
D| x-(10x)| x-(10x)|
A|10------|15------|
E|--------|--------|

Guitar 2:
E|--------|--------|
B| 8-(10x)|13-(10x)|
G|11------|16------|
D|--------|--------|
A|--------|--------|
E|--------|--------|

Guitar 1:

E|----------|----------|----------|----------|----------|
B|-10---(4x)|-12---(4x)|-15---(4x)|-10---(2x)|-12---(2x)|
G|---11-----|---11-----|---12-----|---12-----|---12-----|
D|----------|----------|----------|----------|----------|
A|----------|----------|----------|----------|----------|
E|----------|----------|----------|----------|----------|

E|----------|----------|----------|
B|-10---(4x)|-12---(4x)|-15---(4x)|
G|---11-----|---11-----|---12-----|
D|----------|----------|----------|
A|----------|----------|----------|
E|----------|----------|----------|

Guitar 2(not sure):
E|----------|----------|----------|
B|-2----(4x)|-4----(4x)|-2----(8x)|(2x)
G|---4------|---4------|---4------|
D|----------|----------|----------|
A|----------|----------|----------|
E|----------|----------|----------|


  ()Natural Harmonic
            
Submit corrections

comments powered by Disqus
↑ Back to top | Dance Gavin Dance Tabs for Attack Of The Dashing Young And Bold. Lyrics for acoustic guitar and electric guitar. 1 Tablatures and chords are parodies/interpretations of the original songs. You may use it for private study, scholarship, research or language learning purposes only