» » »

Alex English Tabs (ver.4)

Artists:  A B C D E F G H I J K L M N O P Q R S T U V W X Y Z # 

Alex English Tabs (ver.4)

Dance Gavin Dance
Rating:
5/5 (8 votes)

Hard to play? Try these video lessons and learn fast.
                (Intro)
Guitar 1
_________________________________________________________________________
E------------------------------------------------------------------------|
B---9---9---9---9---9---9---10---10---9---9---9---9---7---7---7---7------|
G-6---6---6---6---6---6---6----6----6---6---6---6---6---6---6---6--------|
D------------------------------------------------------------------------|x2
A------------------------------------------------------------------------|
D------------------------------------------------------------------------|

Guitar 2
_________________________________________________________________________
E-----9--12--14-------------7----------------------7-------------7h9-----|
B---9-----------12--14\---------9-7-7h9--------9-------------9-------7h9-|
G-6-----------------------9---6--------------9---9---9-----9---9---------|
D----------------------------------------7-9-----------7-9---------------|
A------------------------------------------------------------------------|
D------------------------------------------------------------------------|



That's all I know, this is my first tab and i'm 95% sure this is right.
Please rate and let me know how I did.
            
Hard to play? Try these video lessons and learn fast. | Correct




comments powered by Disqus
↑ Back to top | Tablatures and chords are parodies/interpretations of the original songs. You may use it for private study, scholarship, research or language learning purposes only