» » »

Dance Gavin Dance, Alex English Tabs (ver.3)

Artists:  A B C D E F G H I J K L M N O P Q R S T U V W X Y Z # 

Alex English Tabs (ver.3)

Dance Gavin Dance Tabs
 Rating:
4/5 (4 votes)
Alex English lessons Tabs too difficult? Try these video lessons and learn fast
1
                e|--------------------------------------------------------------------------|
B|---9---9---9---9---9---9---10---10---9---9---9---9---7---7---7---7--------|
G|-6---6---6---6---6---6---6----6----6---6---6---6---6---6---6---6----------|
D|--------------------------------------------------------------------------|
A|--------------------------------------------------------------------------|
D|--------------------------------------------------------------------------|

e|-----9---12/14-----------------7-----------------------------4p0---7p0----|
B|---9-----------12/14\-------------9--9--7--7h9----------------------------|
G|-6----------------------6--9----------------------------9-----------------|
D|--------------------------------------------------7--9--------------------|
A|--------------------------------------------------------------------------|
D|--------------------------------------------------------------------------|

e|------------4p0----7/9-----------------------------------------------------|
B|-------------------------7/9-----------------------------------------------|
G|-------9-------------------------------------------------------------------|
D|-7--9----------------------------------------------------------------------|
A|---------------------------------------------------------------------------|
D|---------------------------------------------------------------------------|

e|-----------------------------7---------------------------------7/9--------|
B|--------------------------------5\---------------------0--5----------7--7-|
G|-4-------------4------------------------4---------------------------------|
D|----6--(x9)-------6--(x9)------------------6--(x9)------------------------|
A|-4-------------4------------------------4---------------------------------|
D|--------------------------------------------------------------------------|
im not too sure about the little part after the 3rd chord above
but i think its pretty close

e|--------------------------------------------------------------------------|
B|-----5---4-----(repeat all of this once more...starting from the chords)--|
G|--------------------------------------------------------------------------|
D|--------------------------------------------------------------------------|
A|--------------------------------------------------------------------------|
D|--------------------------------------------------------------------------|

e|--------------------------------------------------------------------------|
B|--------------------------------------------------------------------------|
G|----(then theres like a lil part from 34 sec. to 49 sec...i dont no it yet
 but it does the part with the chords 
and stuff from above also so u can jus do that)-----------------------------|
D|--------------------------------------------------------------------------|
A|--------------------------------------------------------------------------|
D|------then rite at 49 seconds im pretty sure it goes as follows..---------|

e|---------7p4-----------7p4-----------------------------------------------|
B|-4h5p4---------4h5p4---------5p4-----------------------------------------|
G|----------------------------------6p4------------------------------------|(repeat from 00:49
D|-------------------------------------------------------------------------| untill 1:10)
A|-------------------------------------------------------------------------|
D|-------------------------------------------------------------------------|

e|---(then at 1:10)..--------------------------------------------------------|
B|---------------------------------------------------------------------------|
G|--9-------8------9--------  9-----------8--------9-------------------------|
D|--x-(x2)--x-(3)--x-(x1)---  x-(x2)------x-(x3)---x-(x1)--------------------|
A|--7-------6------7--------  7-----------6--------7-------------------------|
D|---------------------------------------------------------------------------|
thats all i have for now.. ill put more up later most likely tomorrow  =)..enjoy..


| /  slide up
| \  slide down
| h  hammer-on
| p  pull-off
| ~  vibrato
| +  harmonic
| x  Mute note
            
Submit corrections

comments powered by Disqus
↑ Back to top | Dance Gavin Dance Tabs for Alex English. Lyrics for acoustic guitar and electric guitar. 1 Tablatures and chords are parodies/interpretations of the original songs. You may use it for private study, scholarship, research or language learning purposes only