» » »

12 Hours, 630 Miles Tabs (ver.2)

Artists:  A B C D E F G H I J K L M N O P Q R S T U V W X Y Z # 

12 Hours, 630 Miles Tabs (ver.2)

Dance Gavin Dance
Rating:
0/5 (0 votes)

Hard to play? Try these video lessons and learn fast.
                Tuning: Standard
/ and \ = slide
~ = bend string slightly

1st time: 0:00-0:10   ~~  2nd time: 0:21-0:31
--------------------------------------------------------|
-1--3/5\3--------------------1-3/5\3--------------------|
--------------5-4-----------------------5-4-------------|
------------------5-7-7-5--------------------5-7-5/7\5--|
--------------------------------------------------------|
--------------------------------------------------------|
1st time: 0:10-0:21
--------------------------7--------7----------------|
-1--3/5\3------------------8------8--8--------------|
------------5-4-------------9-7-9-----9--7-9-7/9----|
------------------5-7-7-5---------------------------|  Repeat both 2 times
----------------------------------------------------|
----------------------------------------------------|
0:42
-7-------7------|
--8-----8-8~~---|
---9-7-9--------|   End with this 2nd time instead 
----------------|   of the 7-9 7/9 in 1st time 0:21
----------------|
----------------|
Then during 0:46-0:55
7-------------12--------------5-------------7---------------12-|
---------------------------------------------------------------|
---------------------------------------------------------------|
---------------------------------------------------------------|
---------------------------------------------------------------|
---------------------------------------------------------------|
During 0:56-0:58
3-5-7(slide to 7 and down to three if wanted)-3---------|
------------------------------------------------5-3-5-3-|
--------------------------------------------------------|
--------------------------------------------------------|
--------------------------------------------------------|
--------------------------------------------------------|
Then: 0:58-1:03
7-7-7-7-7-7--12-12-12-12-12-12--5-5-5-5-5-5--3-5-3------|
--------------------------------------------------5-3-5-|
--------------------------------------------------------|
--------------------------------------------------------|
--------------------------------------------------------|
--------------------------------------------------------|
1:04-1:09
7-7-7-7-7-7--12-12-12-12-12-12--3-5-7-3--------|
---------------------------------------5-3-5-3-|
-----------------------------------------------|
-----------------------------------------------|
-----------------------------------------------|
-----------------------------------------------|
1:09-1:13
7-7-7-7-7-7--12-12-12-12-12-12--5-5-5-5-5-5--3-5-3------|
--------------------------------------------------5-3-5-|
--------------------------------------------------------|
--------------------------------------------------------|
--------------------------------------------------------|
--------------------------------------------------------|
1:14-end
7-------7----|
-8-----8-8~~-|
--9-7-9------| Repeat until end.
-------------|
-------------|
-------------|
            
Hard to play? Try these video lessons and learn fast. | Correct




comments powered by Disqus
↑ Back to top | Tablatures and chords are parodies/interpretations of the original songs. You may use it for private study, scholarship, research or language learning purposes only