» » »

Dance Club Massacre, Murder Comes With Smiles Tabs (ver.5)

Artists:  A B C D E F G H I J K L M N O P Q R S T U V W X Y Z # 

Murder Comes With Smiles Tabs (ver.5)

Dance Club Massacre Tabs
 Rating:
4/5 (4 votes)
Murder Comes With Smiles lessons Tabs too difficult? Try these video lessons and learn fast
                heres a tab for this badass song
:DD

Palm Mute                      
A|-------------------|-------------------|
B|-------------------|-------------------|     
G|-----------5-5-5-5-|---------5-5-5-5---|             
D|---------6--------6|--------6-------6--|             
A|-8-8-8-8-----------|-7-7-7-7-----------|             
D|-------------------|-------------------|             
                     x2                  x2 
              
x2 second time distorted and not palm muted
A|-------------|--------------|         
B|-------------|--------------|         
G|-------5-5---|-------5-5----|         
D|-----6-----6-|-----6----6---|         
A|-8-8---------|-7-7----------|         
D|-------------|--------------|
                x2             x2

A|------------------------------------------------|
B|------------------------------------------------|
G|------------------------------------------------|
D|------------------------------------------------|x6
A|-333333333---333333333---222222222---222222222--|
D|-333333333---333333333---222222222---222222222--|
   ********    ********    ********    ********

A|-------------------------------------------------|
B|-------------------------------------------------|
G|-------------------------------------------------|x3
D|-------------------------------------------------|
A|----------5-4---------5-4---------5-4---------5-8|
D|-0-0030-0----0-0030-0----0-0030-0----0-0030-0----|


A|---------------------------|
B|---------------------------|
G|---------------------------|
D|---------------------------|
A|---------------------------|
D|-000----000----000----000--|
   ***    ***    ***    ***

A|---------------------------------------|
B|---------------------------------------|
G|---------------------------------------|x2
D|---------------------------------------|
A|----------5-4---------5-4---------5-4--|
D|-0-0030-0----0-0030-0----0-0030-0------|

A|-----------------|
B|--------------6-5|
G|----------7-6----|x2
D|------8-7--------|
A|--8-7------------|
D|-----------------|

(I'm not sure if the next four parts are right)
A|-----------------------|
B|-----------------------|
G|----10101010--12-12-12-|x4
D|----9-9-9-9---11-11-11-|
A|----8-8-8-8---10-10-10-|
D|-----------------------|


A|-------------|
B|-------------|
G|--13-14-15-14|x4
D|--12-13-14-13|
A|--11-12-13-12|
D|-------------|


A|-----------------------|
B|-----------------------|
G|----10101010--12-12-12-|x4
D|----9-9-9-9---11-11-11-|
A|----8-8-8-8---10-10-10-|
D|-----------------------|


A|-------------|
B|-------------|
G|--13-14-15-14|x4
D|--12-13-14-13|
A|--11-12-13-12|
D|-------------|

A|-------------------------------------------------------------------------|
B|-------------------------------------------------------------------------|
G|-------------------------------------------------------------------------|
D|-13-12---13-12-13---13-12---13-12-13-12---13---13-12-13-12---13-12-13-12-|
A|-12-11---12-11-12---12-11---12-11-12-11---12---12-11-12-11---12 11 12-11-|
D|-11-10---11-10-11---11-10---11-10-11-10---11---11-10-11-10---11-10-11-10-|


A|-------------------------------------------------------------------------|
B|-------------------------------------------------------------------------|
G|-------------------------------------------------------------------------|
D|-13-12---13-12-13---13-12---13-12-13-12---13---13-12-13-12---13-12-13-12-|
A|-12-11---12-11-12---12-11---12-11-12-11---12---12-11-12-11---12 11 12-11-|
D|-11-10---11-10-11---11-10---11-10-11-10---11---11-10-11-10---11-10-11-10-|

A|-----------------------------------------|
B|-----------------------------------------|
G|-----------------------------------------|
D|-13-12-13-12-13-12-13-12-13-12-13-12-13\-|
A|-12-11-12-11-12 11 12-11-12 11-12-11-12\-|
D|-11-10-11-10-11-10-11-10-11-10-11-10-11\-|


A|-------------------|
B|-------------------|
G|--------------7--6-|
D|-0000--3--000-7--6-|
A|-0000--3--000-5--4-|
D|-0000--3--000------|

A|---------------------|
B|---------------------|
G|--------------7--6-7-|
D|-0000--3--000-7--6-7-|
A|-0000--3--000-5--4-5-|
D|-0000--3--000--------|


A|-------------------|
B|-------------------|
G|--------------7--6-|
D|-0000--3--000-7--6-|
A|-0000--3--000-5--4-|
D|-0000--3--000------|

A|---------------------|
B|---------------------|
G|--------------7--6-7-|
D|-0000--3--000-7--6-7-|
A|-0000--3--000-5--4-5-|
D|-0000--3--000--------|


A|-------------------|
B|-------------------|
G|--------------7--6-|
D|-0000--3--000-7--6-|
A|-0000--3--000-5--4-|
D|-0000--3--000------|

A|---------------------|
B|---------------------|
G|--------------7--6-7-|
D|-0000--3--000-7--6-7-|
A|-0000--3--000-5--4-5-|
D|-0000--3--000--------|


A|-------------------|
B|-------------------|
G|--------------7--6-|
D|-0000--3--000-7--6-|
A|-0000--3--000-5--4-|
D|-0000--3--000------|

A|---------------------|
B|---------------------|
G|--------------7--6-7-|
D|-0000--3--000-7--6-7-|
A|-0000--3--000-5--4-5-|
D|-0000--3--000--------|


A|-------------------------------------------------|
B|-------------------------------------------------|
G|-------------------------------------------------|x2
D|-------------------------------------------------|
A|----------5-4---------5-4---------5-4---------5-4|
D|-0-0030-0----0-0030-0----0-0030-0----0-0030-0----|


A|-------------------------------------------------|
B|-------------------------------------------------|
G|-------------------------------------------------|
D|----------0-4---------0-4---------0-4--------0-4-|
A|-------------------------------------------------|
D|-0-0030-0----0-0030-0----0-0030-0----0-0030-0----|

A|-------------------------------------------------|
B|-------------------------------------------------|
G|-------------------------------------------------|
D|-------------------------------------------------|
A|----------5-4---------5-4---------5-4---------5-4|
D|-0-0030-0----0-0030-0----0-0030-0----0-0030-0----|


A|------------~~|
B|------------~~|
G|------------~~|
D|-3--2--3-2-0~~|
A|-3--2--3-2-0~~|
D|-3--2--3-2-0~~|


A|---------|---------------------|
B|---1---1-|                     |
G|--1-1-1-1|                     |
D|-3---3---|                     |
A|---------|                     |
D|---------|                     |
                                 | x8
A|---------|                     |
B|---1---1-|                     |
G|--1-1-1-1|                     |
D|-2---2---|                     |
A|---------|                     |
D|---------|---------------------|


A|---|
B|---|
G|---|
D|---|
A|---|
D|-3-|


--Clip of girl getting murdered--

A|--------------------|
B|--------------------|
G|--66666666-55555555-|
D|--77777777-66666666-|x5
A|--88888888-77777777-|
D|--------------------|

--End--(finaly)
            
Submit corrections

comments powered by Disqus
↑ Back to top | Dance Club Massacre Tabs for Murder Comes With Smiles. Lyrics for acoustic guitar and electric guitar. Tablatures and chords are parodies/interpretations of the original songs. You may use it for private study, scholarship, research or language learning purposes only