» » »

Dance Club Massacre, Hoosh Hoosh Tabs (ver.2)

Artists:  A B C D E F G H I J K L M N O P Q R S T U V W X Y Z # 

Hoosh Hoosh Tabs (ver.2)

Dance Club Massacre Tabs
 Rating:
4/5 (4 votes)
Hoosh Hoosh lessons Tabs too difficult? Try these video lessons and learn fast
                --------=---------|
--------=---------|
--------=---------|
-6--5---=--11---5-|
-4--5---or-11---5-|
----5---=--11---5-|

----------------------------------|
----------------------------------|
----------------------------------|
----------------------------------|
----------5p0-----5p0-7p0-8p0-7p0-|
-000-000------000-----------------|
 ... ...      ...
------------------|
------------------|
-3333-6666-999999-|
-xxxx-xxxx-xxxxxx-
-1111-4444-777777-|
------------------|

-----------------------------------|
-----------------------------------|
-9--5--7--3------------------------|
-x--x--x--x------------------------|
-7--3--5--1------------8--5--7--4--|
-----------------------8--5--7--4--|

---------------------------------------------|
---------------------------------------------|
---------------------------------------------|
---------------------------------------------|
-55--55--55--55--55--55--55--55---8--5--7--4-|
-55--55--55--55--55--55--55--55---8--5--7--4-|
 ..  ..  ..  ..  ..  ..  ..  ..

---------------|
---------------|
---------------|
---------------|
-0-0-0-0-0-0-8-|
-0-0-0-0-0-0-8-|
 . . . . . .


--------=--------|
--------=--------|
--------=--------|
-6--5---=--9---5-|
-4--5---or-9---5-|
----5---=--9---5-|


----------------------------------|
----------------------------------|
----------------------------------|
----------------------------------|
----------5p0-----5p0-7p0-8p0-7p0-|
-000-000------000-----------------|
 ... ...      ...
            
Submit corrections

comments powered by Disqus
↑ Back to top | Dance Club Massacre Tabs for Hoosh Hoosh. Lyrics for acoustic guitar and electric guitar. Tablatures and chords are parodies/interpretations of the original songs. You may use it for private study, scholarship, research or language learning purposes only