» » »

I Want Some More Tabs (ver.1)

Artists:  A B C D E F G H I J K L M N O P Q R S T U V W X Y Z # 

I Want Some More Tabs (ver.1)

Dan Auerbach
Rating:
0/5 (0 votes)
Tabs too difficult? Try these video lessons and learn fast.
                One of the est track on the album. I might be counting this song slower than you might, 
so please try to bear with me. This song isn't that hard, really. No bends, slides... 
Just some vibratos and hammers and pulls.

Intro:

e|------------|----------------|
B|------------|----------------|
G|------------|----------------|
D|-7h9--7--4--|-7h9--7--4--2-0-|
A|------------|----------------|
E|------------|----------------|

e|----------|----------------|
B|------7---|----------------|
G|----x-8---|----------------|  x6 (Note: 10's and 12's, not 1-0 and 1-2.)
D|----x-9---|----------------|
A|----x-9---|----------------|
E|-7--x-7-7-|-7--10-12-12-10-|

Verse: Pretty easy stuff so far.

e|-7-7-7-7-|-5-5-7-7-|----------------|
B|-7-7-7-7-|-5-5-7-7-|----------------|
G|-8-8-8-8-|-6-6-9-9-|----------------|
D|-9-9-9-9-|-7-7-9-9-|-7h9--7--4--2-0-|
A|-9-9-9-9-|-7-7-9-9-|----------------|
E|-7-7-7-7-|-5-5-7-7-|----------------|

e|---x-7---|-----------------|
B|---x-7---|-----------------|
G|---x-8---|-----------------|
D|---x-9---|-----------------|   x2
A|---x-9---|-----------------|
E|7--x-7-7-|-7--10-12--12-10-|

Play this whole thing again and then...

Bridge: This is the odd part of the song. The chords are weird and funky (not the good 
kind).The timing is the same. I just had to space it out for the double didgets and whatnot.

e|---------|-------------|-----------------|-----|
B|---------|-------------|-----------------|-----|
G|---------|-------------|--12--12--12--12-|-11~-|
D|-6-6-6-6-|-11-11-11-11-|--12--12--12--12-|-11~-|
A|-6-6-6-6-|-11-11-11-11-|--10--10--10--10-|--9~-|
E|-4-4-4-4-|--9--9--9--9-|-----------------|-----|

e|-7-7-7-7-|-5-5-7-7-|----------------|
B|-7-7-7-7-|-5-5-7-7-|----------------|
G|-8-8-8-8-|-6-6-9-9-|----------------|
D|-9-9-9-9-|-7-7-9-9-|-7h9--7--4--2-0-|
A|-9-9-9-9-|-7-7-9-9-|----------------|
E|-7-7-7-7-|-5-5-7-7-|----------------|

e|---x-7---|-----------------|
B|---x-7---|-----------------|
G|---x-8---|-----------------|
D|---x-9---|-----------------|   x2
A|---x-9---|-----------------|
E|7--x-7-7-|-7--10-12--12-10-|

Solo: For a while Dan wails on a B. Then he get an octive higher. After a while he 
finally plays this:

e|------------------------10-12--12-10-|-----------------------------------|
B|-12--12-10-12--12-10-12--------------|-12--12-10-12--12-10-12------------|
G|-------------------------------------|------------------------9-11--11-9-|
D|-------------------------------------|-----------------------------------|
A|-------------------------------------|-----------------------------------|
E|-------------------------------------|-----------------------------------|

e|------------------------10-12--12-10-|
B|-12--12-10-12--12-10-12--------------|
G|-------------------------------------|
D|-------------------------------------|
A|-------------------------------------|
E|-------------------------------------|

e|-14-14-12-10-12-10----------10----------|-------|
B|-------------------12-10-12----12-10-12-|-(12)~-|
G|----------------------------------------|-------|
D|----------------------------------------|-------|
A|----------------------------------------|-------|
E|----------------------------------------|-------|

Verse:

e|-7-7-7-7-|-5-5-7-7-|----------------|
B|-7-7-7-7-|-5-5-7-7-|----------------|
G|-8-8-8-8-|-6-6-9-9-|----------------|
D|-9-9-9-9-|-7-7-9-9-|-7h9--7--4--2-0-|
A|-9-9-9-9-|-7-7-9-9-|----------------|
E|-7-7-7-7-|-5-5-7-7-|----------------|

e|---x-7---|-----------------|
B|---x-7---|-----------------|
G|---x-8---|-----------------|
D|---x-9---|-----------------|   x2
A|---x-9---|-----------------|
E|7--x-7-7-|-7--10-12--12-10-|

Play this whole thing again and then...

Bridge:

e|---------|-------------|-----------------|-----|
B|---------|-------------|-----------------|-----|
G|---------|-------------|--12--12--12--12-|-11~-|
D|-6-6-6-6-|-11-11-11-11-|--12--12--12--12-|-11~-|
A|-6-6-6-6-|-11-11-11-11-|--10--10--10--10-|--9~-|
E|-4-4-4-4-|--9--9--9--9-|-----------------|-----|

e|-7-7-7-7-|-5-5-7-7-|----------------|
B|-7-7-7-7-|-5-5-7-7-|----------------|
G|-8-8-8-8-|-6-6-9-9-|----------------|
D|-9-9-9-9-|-7-7-9-9-|-7h9--7--4--2-0-|
A|-9-9-9-9-|-7-7-9-9-|----------------|
E|-7-7-7-7-|-5-5-7-7-|----------------|

e|---x-7---|-----------------|
B|---x-7---|-----------------|
G|---x-8---|-----------------|
D|---x-9---|-----------------|   x2
A|---x-9---|-----------------|
E|7--x-7-7-|-7--10-12--12-10-|

Outro: This is basically the intro lick twice, but slowing down as it goes.

e|------------|----------------|
B|------------|----------------|
G|------------|----------------|
D|-7h9--7--4--|-7h9--7--4--2-0-|
A|------------|----------------|
E|------------|----------------|

e|----------|----------------|
B|------7---|----------------|
G|----x-8---|----------------|
D|----x-9---|----------------|
A|----x-9---|----------------|
E|-7--x-7-7-|-7--10-12-12-10-|

e|------------|-----------------|
B|------------|-----------------|
G|------------|-----------------|
D|-7h9--7--4--|-7h9--7--4--2-0~-|
A|------------|-----------------|
E|------------|-----------------|

Key:

|-~-|= vibrato or held out note
|-h-|= hammer onto the next fret
|-p-|= pull off the fret on to a different one (I know I didn't use it, but oh well.)
|-(12)-|= ghost note; an elongated note that usually streched from the measure before
|-x-|= chunck the strings

I tried to submit this before, but my computer crashed. :( If you have any comments or 
            
Tabs too difficult? Try these video lessons and learn fast.


comments powered by Disqus
↑ Back to top | Tablatures and chords are parodies/interpretations of the original songs. You may use it for private study, scholarship, research or language learning purposes only