>
 >
Time Capsule

Time Capsule Guitar Tabs

Dananananaykroyd - Time Capsule chords, tabs, tablatures, lyrics

Guitar lessons | Add/correct | Request | Top 50 tabs Artists:  A B C D E F G H I J K L M N O P Q R S T U V W X Y Z 0-9

Time Capsule Guitar Tabs – Dananananaykroyd

CD, Sheet music, Poster

Do you like Time Capsule? Share with your friends now
Tabs
jjjddd
EADGAe
    -

                             (LOVE)
RIP DANANANANAYKROYD YOU WILL LIVE FOREVER


e|--------------------------------------------------------------------|
A|------------------------------------0-0-0---------------0-0-0-------|
G|------------------------------------7-7-7~--------------7-7-7~------|
D|--------------4--7--4--2--------------------------------------------|
A|--AUAUHGUHRHG-2--5--2--0--2-2-2~----5-5-5~---2-2-2~-----5-5-5~------|
E|--------------------------0-0-0~-------------0-0-0~-----------------|

e|-------------------------------------0----------|
A|-----------0-0-0--0-0-0--0-0-0--0----0----------|
G|-----------7-7-7--6-6-6--5-5-5--4~---2----------|
D|-------------------------------------2----------|
A|--2-2-2----5-5-5--4-4-4--3-3-3--2~---0----------|
E|--0-0-0-----------------------------------------|


     TIME CAPSUUULE!   TIME CAPSUUULE!
e|----------------------------------------|
A|--------------------------------9-------|
G|---------------6----------6-7-9---9-----|
D|---------6-7-9---9--6-7-9---------------| x2
A|---6-7-9--------------------------------|
E|----------------------------------------|
                         
e|---------------------------------------------------|
A|--------------------------------9---11--12--9--11--|
G|---------------6----------6-7-9---9----------------|
D|---------6-7-9---9--6-7-9--------------------------|
A|---6-7-9-------------------------------------------|
E|---------------------------------------------------|
                                                                       


e|-----------------------------------------------------|
A|---------11\9---11\7---------------------------------|
G|---------13\11--13\9------------------4-4-4-4-4-6----|
D|--2--2---0------0-------6-6-6-6-6-5------------------|
A|--2--2--------------------------------2-2-2-2-2-4----|
E|--0--0------------------4-4-4-4-4-3------------------|

e|------------------------------------------------------|
A|---------11\9---11\14---------------------------------|
G|---------13\11--13\16------------------4-4-4-4-4-6----|
D|--2--2---0------0--------6-6-6-6-6-5------------------|
A|--2--2---------------------------------2-2-2-2-2-4----|
E|--0--0-------------------4-4-4-4-4-3------------------|


katies got a spray on, etc...(not really sure about this)
e|----------------------------------------------------------------|
A|-------5-------0-------5-------0--------------------------------|
G|-------7-------0-------7-------0--------------------------------|
D|-------0-------7-------0-------7--------------------------------|
A|----------------------------------6/7-6/7-6/7-6/7-6/7-6/7-6-2---|
E|--0-0-----0-0--5--0-0-----0-0--5--4/5-4/5-4/5-4/5-4/5-4/5-4-0---|
    * *     * *     * *     * * 
e|-------------------------------------------------------|
A|-------5-------0-------5-------0-----------------------|
G|-------7-------0-------7-------0-----------------------|
D|-------0-------7-------0-------7-----------------------|
A|---------------5---------------5--6/7-6/7-6-7~~----2---|
E|--0-0-----0-0-----0-0-----0-0-----4/5-4/5-4-5~~----0---|
    * *     * *     * *     * * 
 

e|-----------------------------------------------------|
A|---------11\9---11\7---------------------------------|
G|---------13\11--13\9------------------4-4-4-4-4-6----|
D|--2--2---0------0-------6-6-6-6-6-5------------------|
A|--2--2--------------------------------2-2-2-2-2-4----|
E|--0--0------------------4-4-4-4-4-3------------------|

e|------------------------------------------------------|
A|---------11\9---11\14---------------------------------|
G|---------13\11--13\16------------------4-4-4-4-4-6----|
D|--2--2---0------0--------6-6-6-6-6-5------------------|
A|--2--2---------------------------------2-2-2-2-2-4----|
E|--0--0-------------------4-4-4-4-4-3------------------|

e|----------------------------------------------------------------|
A|-------5-------0-------5-------0--------------------------------|
G|-------7-------0-------7-------0--------------------------------|
D|-------0-------7-------0-------7--------------------------------|
A|----------------------------------6/7-6/7-6/7-6/7-6/7-6/7-6-2---|
E|--0-0-----0-0--5--0-0-----0-0--5--4/5-4/5-4/5-4/5-4/5-4/5-4-0---|
    * *     * *     * *     * * 
e|--------------------------------------------------------|
A|-------5-------0-------5-------0------------------------|
G|-------7-------0-------7-------0------------------------|
D|-------0-------7-------0-------7---------------4-7-4-2--|
A|----------------------------------6/7-6/7-6-7--2-5-2-0--|
E|--0-0-----0-0--5--0-0-----0-0--5--4/5-4/5-4-5-----------|
    * *     * *     * *     * * 
    

    TIME CAPSUUULE!   TIME CAPSUUULE!
e|----------------------------------------|
A|--------------------------------9-------|
G|---------------6----------6-7-9---9-----|
D|---------6-7-9---9--6-7-9---------------| x2
A|---6-7-9--------------------------------|
E|----------------------------------------|                 }x2
                         
e|------------------------------------------------17\--|
A|--------------------------------9---11--12-----------|
G|---------------6----------6-7-9---9---------11-------|
D|---------6-7-9---9--6-7-9----------------------------|
A|---6-7-9---------------------------------------------|
E|-----------------------------------------------------|
                                                     

  I HOPE YOU HEAR THESE WORDS (FUCK YOU) etc..
e|-----------------------------------------------------------|
A|-----------------------------------------------------------|
G|-----------------------------------6-4--6-4--6-4-----------|
D|--7-7-7-7-7-7-7-7-7-7-7-7-7-7-7-7------------------2---2---| x2
A|--7-7-7-7-7-7-7-7-7-7-7-7-7-7-7-7--4-2--4-2--4-2---2---2---|
E|--5-5-5-5-5-5-5-5-5-5-5-5-5-5-5-5------------------0---0---|

e|----------------------------------------------------------------------|
A|----------------------------------------------------------------------|
G|--2-2-2-2-2-2-2-2--5-5-5-5-5-5-5-5--6-6-6-6-6-6-6-6-6-6-6-6-6-6-6-6---|
D|--2-2-2-2-2-2-2-2-----------------------------------------------------|
A|--0-0-0-0-0-0-0-0--3-3-3-3-3-3-3-3--4-4-4-4-4-4-4-4-4-4-4-4-4-4-4-4---|
E|----------------------------------------------------------------------|

e|------------------------------------------------------------|
A|------------------------------------------------------------|
G|-6-6-6-6-6-6-6-6--4-4-4-4-4-4-4-4--6-4--6-4--6-4------------|
D|----------------------------------------------------2---2---|
A|-4-4-4-4-4-4-4-4--2-2-2-2-2-2-2-2--4-2--4-2--4-2----2---2---|
E|----------------------------------------------------0---0---|


e|----------------------------------------------------------------------|
A|----------------------------------------------------------------------|
G|--2-2-2-2-2-2-2-2--5-5-5-5-5-5-5-5--6-6-6-6-6-6-6-6-6-6-6-6-6-6-6-6---|
D|--2-2-2-2-2-2-2-2-----------------------------------------------------|
A|--0-0-0-0-0-0-0-0--3-3-3-3-3-3-3-3--4-4-4-4-4-4-4-4-4-4-4-4-4-4-4-4---|
E|----------------------------------------------------------------------|

e|-----------------------------------------------|
A|-----------------------------------------------|
G|-6-6-6-6-6-6-6-6--4-4-4-4-4-4-4-4----4--6-4----|
D|-----------------------------------------------|
A|-4-4-4-4-4-4-4-4--2-2-2-2-2-2-2-2----2--4-2----|
E|-----------------------------------------------|



e|-----------------------------------------------------|
A|---------11\9---11\7---------------------------------|
G|---------13\11--13\9------------------4-4-4-4-4-6----|
D|--2--2---0------0-------6-6-6-6-6-5------------------|
A|--2--2--------------------------------2-2-2-2-2-4----|
E|--0--0------------------4-4-4-4-4-3------------------|

e|--------------------------------------------------------|
A|---------11\9---11\14-----------------------------------|
G|---------13\11--13\16------------------4-4-4-4--4-5-6---|
D|--2--2---0------0--------6-6-6-6-6-5--------------------|
A|--2--2---------------------------------2-2-2-2--2-3-4---|
E|--0--0-------------------4-4-4-4-4-3--------------------|


e|-------------------------------------------------------------|
A|-------5-------0-------5-------0-----------------------------|
G|-------7-------0-------7-------0-----------------------------|
D|-------0-------7-------0-------7-----------------------------|
A|----------------------------------6/7-6/7-6/7-6/7--7-7-7-7---|
E|--0-0-----0-0--5--0-0-----0-0--5--4/5-4/5-4/5-4/5--5-5-5-5---|
    * *     * *     * *     * * 
e|------------------------------------------------------------------|
A|-------5-------0-------5-------0----------------------------------|
G|-------7-------0-------7-------0----------------------------------|
D|-------0-------7-------0-------7----------------4----7----4----2--|
A|----------------------------------6/7-6/7-6-7---2----5----2----0--|
E|--0-0-----0-0--5--0-0-----0-0--5--4/5-4/5-4-5---------------------|
    * *     * *     * *     * * 


            GREATEST OUTRO RIFF OF ALL TIME
e|----------------------------------------------------------|
A|----------------------------------------------------------|
G|------------------------------------------------9-11-7----|
D|-------------7--9---11-12--9--------7-9---1112--0-0--0----| x8
A|--7---9--11--0--0---0--0---0----11--0-0---0-0-------------|
E|--0---0--0----------------------0-------------------------|

(slow it up on the last time) and end with this
e|-------------------|
A|-------------------|
G|--9~~~~~~~~~~------|
D|-------------------|
A|--7~~~~~~~~~~------|
E|--0~~~~~~~~~~------|



                             (LOVE)
RIP DANANANANAYKROYD YOU WILL LIVE FOREVER





Comments


Popular Dananananaykroyd tabs & chords
1993 Tabs
All Us Authors Tabs
Black Wax Tabs
Good Time Tabs
Hey Everyone Tabs
Muscle Memory Tabs
Muscle Memory 1 Tabs
One Chance Tabs
Some Dresses Tabs
Some Dresses Intro Tabs


Song lyrics



↑ Back to top | Tablatures and chords are parodies/interpretations of the original songs. You may use it for private study, scholarship, research or language learning purposes only
© 2014 AZChords.com Contact us | Privacy policy | DMCA | Add/correct tabs | Request tabs | Top 50 tabs