>
 >
The Greater Than Symbol The Hash

The Greater Than Symbol The Hash Guitar Tabs

Dananananaykroyd - The Greater Than Symbol The Hash chords, tabs, tablatures, lyrics

Guitar lessons | Add/correct | Request | Top 50 tabs Artists:  A B C D E F G H I J K L M N O P Q R S T U V W X Y Z 0-9

The Greater Than Symbol The Hash Guitar Tabs – Dananananaykroyd

CD, Sheet music, Poster

Do you like The Greater Than Symbol The Hash? Share with your friends now
Tabs
-------------------------------------------------------------------------------
                 The Greater Than Symbol & The Hash - Dananananaykroyd
-------------------------------------------------------------------------------




e|----------------------------------------------------------------|
B|----------------------------------------------------------------|
G|9-12-77-9~---7/-9/--11\-9\-7---9-12-77-9~----11/12\-11-9/-11----|
D|x--x-xx-x~---x--x---x---x--x---x--x-xx-x~----x---x--x--x--x-----|
A|7-10-55-7~---5/-7/--9\--7\-5---7-10-55-7~----9/-10\-9--7/-9-----|
E|----------------------------------------------------------------|

e|--------------------------------------------|
B|--------------------------------------------|
G|11-11--77-5~--12-1212---12-12-1212----------|
D|x--x---77-5~--x--x-x----12-12-1212--4~------|
A|10-10--55-3~--10-1010---10-10-1010--4~------|
E|------------------------------------2~------|

e|----------------------------------------------------------------|
B|----------------------------------------------------------------|
G|9-12-77-9~---7/-9/--11\-9\-7---9-12-77-9~----11/12\-11-9/-11----|
D|x--x-xx-x~---x--x---x---x--x---x--x-xx-x~----x---x--x--x--x-----|
A|7-10-55-7~---5/-7/--9\--7\-5---7-10-55-7~----9/-10\-9--7/-9-----|
E|----------------------------------------------------------------|

e|---------------------------------------------------------|
B|---------------------------------------------------------|
G|11-11--77-5~--12-1212---12-12-1212-----------------------|
D|x--x---77-5~--x--x-x----12-12-1212--4-----5-----7--------|
A|10-10--55-3~--10-1010---10-10-1010--4-----5-----7--------|
E|------------------------------------22222-33333-55555----|
                                       ....  ....  ....

e|----------------------------------------------------------------|
B|----------------------------------------------------------------|
G|9-12-77-9~---7/-9/--11\-9\-7---9-12-77-9~----11/12\-11-9/-11----|
D|x--x-xx-x~---x--x---x---x--x---x--x-xx-x~----x---x--x--x--x-----|
A|7-10-55-7~---5/-7/--9\--7\-5---7-10-55-7~----9/-10\-9--7/-9-----|
E|----------------------------------------------------------------|

e|--------------------------------------------|
B|--------------------------------------------|
G|11-11--77-5~--12-1212---12-12-1212----------|
D|x--x---77-5~--x--x-x----12-12-1212--4~------|
A|10-10--55-3~--10-1010---10-10-1010--4~------|
E|------------------------------------2~------|

  (1.18 - 1.27)
e|------------|
B|------------|
G|99-9-99-----|
D|xx-x-xx-----|
A|77-7-77-----|
E|------------|
  
 x2
e|----------------------------------------|
B|-----------888888-----------------------|
G|7-9-11p9-7--------7-9-11p9-7-9999999----|
D|----------------------------------------|
A|----------------------------------------|
E|----------------------------------------|

e|------------------------|
B|------------------------|
G|7-------11--------------|
D|x-(x8)--x--(x8)---------|
A|5-------9---------------|
E|------------------------|

 x2
e|----------------------------------------|
B|-----------888888-----------------------|
G|7-9-11p9-7--------7-9-11p9-7-9999999----|
D|----------------------------------------|
A|----------------------------------------|
E|----------------------------------------|

e|------------------------|
B|------------------------|
G|7-------11--------------|
D|x-(x8)--x--(x8)---------|
A|5-------9---------------|
E|------------------------|

e|------------------|
B|------------------|
G|------------------|
D|2~---2~---2~------|
A|2~---2~---2~------|
E|0~---0~---0~------|

 x4
e|--------------------------------|
B|--------------------------------|
G|99-9-99-9-99-9-99-99-12-14-12---|
D|xx-x-xx-x-xx-x-xx-xx-x--x--x----|
A|77-7-77-7-77-7-77-77-10-12-10---|
E|--------------------------------|

e|---------------------|
B|---------------------|
G|16----14----12----9~-|
D|x-----x-----x-----x~-|
A|14----12----10----7~-|
E|---00----00----00----|
     ..    ..    ..

 (2.57)
e|-----------------0~------------------------------------|
B|-----------------0~------------------------------------|
G|9-12-7-7----9~---0~--9-12-7-7----9~--9-11-12-11-9-7----|
D|x-x--x-x----x----0~--x-x--x-x----x---x-x--x--x--x-x----|
A|7-10-5-5----7~-------7-10-5-5----7~--7-9--10-9--7-5----|
E|---------00-------------------00-----------------------|
           ..                   ..

e|--------------------------------------------|
B|--------------------------------------------|
G|11-11--77-5~--12-1212---12-12-1212----------|
D|x--x---77-5~--x--x-x----12-12-1212--4~------|
A|10-10--55-3~--10-1010---10-10-1010--4~------|
E|------------------------------------2~------|

e|---------------|
B|---------------|
G|12-12-12-12----|
D|x--x--x--x-----|
A|10-10-10-10----|
E|---------------|

e|-----------------0~------------------------------------|
B|-----------------0~------------------------------------|
G|9-12-7-7----9~---0~--9-12-7-7----9~--9-11-12-11-9-7----|
D|x-x--x-x----x----0~--x-x--x-x----x---x-x--x--x--x-x----|
A|7-10-5-5----7~-------7-10-5-5----7~--7-9--10-9--7-5----|
E|---------00-------------------00-----------------------|
           ..                   ..

e|--------------------------------------------|
B|--------------------------------------------|
G|11-11--77-5~--12-1212---12-12-1212----------|
D|x--x---77-5~--x--x-x----12-12-1212--4~------|
A|10-10--55-3~--10-1010---10-10-1010--4~------|
E|------------------------------------2~------|

e|-------------------------------------------|
B|-------------------------------------------|
G|12-12-12-12-12-12--14-14-14-14-14-14-14----|
D|x--x--x--x--x--x---x--x--x--x--x--x--x-----|
A|10-10-10-10-10-10--12-12-12-12-12-12-12----|
E|-------------------------------------------|


e|------|
B|------|
G|------|
D|2~----|
A|2~----|
E|0~----|





Comments


Popular Dananananaykroyd tabs & chords
Black Wax Tabs
Black Wax Intro Tabs
Good Time Tabs
Good Time 1 Tabs
Hey Everyone Tabs
Muscle Memory 1 Tabs
One Chance Tabs
Pink Sabbath Tabs
Some Dresses Intro Tabs
Time Capsule Tabs


Song lyrics



↑ Back to top | Tablatures and chords are parodies/interpretations of the original songs. You may use it for private study, scholarship, research or language learning purposes only
© 2014 AZChords.com Contact us | Privacy policy | DMCA | Add/correct tabs | Request tabs | Top 50 tabs