» » »

Dananananaykroyd, One Chance Tabs (ver.1)

Artists:  A B C D E F G H I J K L M N O P Q R S T U V W X Y Z # 

One Chance Tabs (ver.1)

Dananananaykroyd Tabs
 Rating:
4.2/5 (5 votes)
One Chance lessons Tabs too difficult? Try these video lessons and learn fast
                -------------------------------------------------------------------------------
-------------------------------------------------------------------------------
 


 
 Intro
e|---------------------------------------------------------|
B|---------------------------------------------------------|
G|---------------------------------------------------9\----|
D|-------------9--------------------7-7-77---8--8--8-------|
A|--------9---------9----8h9p8-\5---6-6-66--7--7--7--------|
E|14\--77---77---77---77------------7-7-77-----------------|


e|---------------------------------------------------------|
B|---------------------------------------------------------|
G|-----------------------------------------9-8h9-----------|
D|--------9--------------------7-7-77----8-------8\--------|
A|---9---------9----8h9p8-\5---6-6-66--7-------------------|
E|77---77---77---77------------7-7-77----------------------|

e|---------------------------------------------------------|
B|---------------------------------------------------------|
G|----------------------------------------------9\---------|
D|--------9--------------------7-7-77---8--8--8------------|
A|---9---------9----8h9p8-\5---6-6-66--7--7--7-------------|
E|77---77---77---77------------7-7-77----------------------|


e|---------------------------------------------------------|
B|---------------------------------------------------------|
G|-------------------------------------9-9-99--------------|
D|--------9--------------------7-7-77--8-8-88--------------|
A|---9---------9----8h9p8-\5---6-6-66--7-7-77--------------|
E|77---77---77---77------------7-7-77----------------------|


 Verse x4 "One Chance!"
e|--------|
B|--------|
G|--------|
D|2-4~----|
A|2-4~----|
E|0-2~----|
 
 x4
e|-------------------|
B|-------------------|
G|-------------------|
D|2-4-333-2-4-222----|
A|2-4-----2-4--------|
E|0-2-----0-2--------|

 Intro
 Verse
 Intro
            
Submit corrections

comments powered by Disqus
↑ Back to top | Dananananaykroyd Tabs for One Chance. Lyrics for acoustic guitar and electric guitar. Tablatures and chords are parodies/interpretations of the original songs. You may use it for private study, scholarship, research or language learning purposes only