» » »

Dananananaykroyd, Muscle Memory Tabs (ver.2)

Artists:  A B C D E F G H I J K L M N O P Q R S T U V W X Y Z # 

Muscle Memory Tabs (ver.2)

Dananananaykroyd Tabs
 Rating:
3.4/5 (5 votes)
Muscle Memory lessons Tabs too difficult? Try these video lessons and learn fast
                I'm sure this isn't 100% accurate but this is what I'm hearing and how I play it.

Chorus/Intro

I'll give you the chords, listen to the song for the rhythm.

e|-------------------------|
B|---3---5---7---7-8---3---|
G|---0---0---0---0-0---0---|
D|---x---x---x---x-x---x---|
A|---5---7---9---7-7---3---|
E|---3---5---7-------------|
(For the first 3 chords I use my thumb on the E string, index on the B, and ring 
on the A, using my ring finger to mute the D string.)

Verse

e|-------------------------------------------------------------|
B|--3--3--------------3--3--------------3--3-------------------|
G|--0--0--0h2/4p0-----0--0--0h2/4p0-----0--0--0h2/4p0----------|
D|--0--0---------2/4--0--0---------2/4--0--0---------2p0h2p0---|
A|--x--x--------------x--x--------------x--x-------------------|
E|--3--3--------------3--3--------------3--3-------------------|

Verse (cont)
(once again, just giving chords, no rhythm here)
e|------------------|
B|---1---3---5---7--|
G|---0---0---0---0--|
D|---x---x---x---x--|
A|---3---5---7---9--|
E|------------------|

While ^this is being played, there is a pretty quick lead fill behind it.
This is what I'm hearing.

e|---0h2h3p2--0h3h5p3--0h5h7p5--0h7h10p7-10----|
B|---------------------------------------------|
G|---------------------------------------------|
D|---------------------------------------------|
A|---------------------------------------------|
E|---------------------------------------------|

The two chords used for the pre-chorus are:
e|-----------|
B|--1--------|
G|--0--------|
D|--x----3---|
A|--3----3---|
E|-------1---|

I don't know the solo that starts at the 1:39 mark or the bridge. Sorry guys.
            
Submit corrections

comments powered by Disqus
↑ Back to top | Dananananaykroyd Tabs for Muscle Memory. Lyrics for acoustic guitar and electric guitar. Tablatures and chords are parodies/interpretations of the original songs. You may use it for private study, scholarship, research or language learning purposes only